ISO-10303-21;
HEADER;
FILE_DESCRIPTION (( 'STEP AP203' ),
    '1' );
FILE_NAME ('LFR 5207-30KDD.step',
    '2021-08-23T14:51:12',
    ( '' ),
    ( '' ),
    'SwSTEP 2.0',
    'SolidWorks 2020',
    '' );
FILE_SCHEMA (( 'CONFIG_CONTROL_DESIGN' ));
ENDSEC;

DATA;
#1 = DIRECTION ( 'NONE',  ( -1.000000000000000000, 0.000000000000000000, -0.000000000000000000 ) ) ;
#2 = VERTEX_POINT ( 'NONE', #348 ) ;
#3 = FACE_OUTER_BOUND ( 'NONE', #113, .T. ) ;
#4 = VERTEX_POINT ( 'NONE', #128 ) ;
#5 = AXIS2_PLACEMENT_3D ( 'NONE', #117, #115, #339 ) ;
#6 = AXIS2_PLACEMENT_3D ( 'NONE', #69, #299, #137 ) ;
#7 = DIRECTION ( 'NONE',  ( 1.927470528863119049E-16, -1.000000000000000000, 0.000000000000000000 ) ) ;
#8 = CARTESIAN_POINT ( 'NONE',  ( -14.50000000000000178, 16.00000000000000000, 0.000000000000000000 ) ) ;
#9 = DIRECTION ( 'NONE',  ( -1.000000000000000000, -1.836970198721029688E-16, -0.000000000000000000 ) ) ;
#10 = VERTEX_POINT ( 'NONE', #8 ) ;
#11 = PERSON_AND_ORGANIZATION ( #20, #82 ) ;
#12 = VERTEX_POINT ( 'NONE', #330 ) ;
#13 = FACE_OUTER_BOUND ( 'NONE', #315, .T. ) ;
#14 = PERSON_AND_ORGANIZATION ( #20, #82 ) ;
#15 = PRODUCT_DEFINITION ( 'UNKNOWN', '', #149, #216 ) ;
#16 = LOCAL_TIME ( 16, 51, 12.00000000000000000, #333 ) ;
#17 = DIRECTION ( 'NONE',  ( 1.000000000000000000, 0.000000000000000000, 0.000000000000000000 ) ) ;
#18 = AXIS2_PLACEMENT_3D ( 'NONE', #262, #87, #21 ) ;
#19 = CIRCLE ( 'NONE', #41, 16.00000000000000000 ) ;
#20 = PERSON ( 'UNSPECIFIED', 'UNSPECIFIED', 'UNSPECIFIED', ('UNSPECIFIED'), ('UNSPECIFIED'), ('UNSPECIFIED') ) ;
#21 = DIRECTION ( 'NONE',  ( 0.000000000000000000, 0.000000000000000000, 1.000000000000000000 ) ) ;
#22 = APPROVAL_PERSON_ORGANIZATION ( #259, #189, #358 ) ;
#23 = DIRECTION ( 'NONE',  ( 0.000000000000000000, 0.000000000000000000, -1.000000000000000000 ) ) ;
#24 = AXIS2_PLACEMENT_3D ( 'NONE', #180, #89, #287 ) ;
#25 = CALENDAR_DATE ( 2021, 23, 8 ) ;
#26 = DIRECTION ( 'NONE',  ( 0.000000000000000000, 0.000000000000000000, -1.000000000000000000 ) ) ;
#27 = FACE_OUTER_BOUND ( 'NONE', #80, .T. ) ;
#28 = CC_DESIGN_DATE_AND_TIME_ASSIGNMENT ( #264, #365, ( #15 ) ) ;
#29 = FACE_OUTER_BOUND ( 'NONE', #334, .T. ) ;
#30 = DIRECTION ( 'NONE',  ( 1.000000000000000000, 1.836970198721029688E-16, 0.000000000000000000 ) ) ;
#31 = CARTESIAN_POINT ( 'NONE',  ( 13.50000000000000000, 0.000000000000000000, 38.99999999999999289 ) ) ;
#32 = CARTESIAN_POINT ( 'NONE',  ( -14.50000000000000178, 15.00000000000000000, 0.000000000000000000 ) ) ;
#33 = VERTEX_POINT ( 'NONE', #158 ) ;
#34 = EDGE_CURVE ( 'NONE', #59, #59, #172, .T. ) ;
#35 = FACE_OUTER_BOUND ( 'NONE', #320, .T. ) ;
#36 = DIRECTION ( 'NONE',  ( 1.000000000000000000, 1.836970198721029688E-16, 0.000000000000000000 ) ) ;
#37 = AXIS2_PLACEMENT_3D ( 'NONE', #258, #110, #148 ) ;
#38 = CARTESIAN_POINT ( 'NONE',  ( -14.49999999999999822, 7.222237291452134449E-31, 0.000000000000000000 ) ) ;
#39 = AXIS2_PLACEMENT_3D ( 'NONE', #266, #218, #293 ) ;
#40 = CARTESIAN_POINT ( 'NONE',  ( -10.19803902718556543, 0.000000000000000000, 39.99999999999999289 ) ) ;
#41 = AXIS2_PLACEMENT_3D ( 'NONE', #249, #9, #134 ) ;
#42 = DIRECTION ( 'NONE',  ( -2.168404344971008868E-16, 1.000000000000000000, 0.000000000000000000 ) ) ;
#43 = CC_DESIGN_APPROVAL ( #255, ( #279 ) ) ;
#44 =( LENGTH_UNIT ( ) NAMED_UNIT ( * ) SI_UNIT ( .MILLI., .METRE. ) );
#45 = AXIS2_PLACEMENT_3D ( 'NONE', #100, #329, #300 ) ;
#46 = EDGE_CURVE ( 'NONE', #33, #33, #91, .T. ) ;
#47 = ADVANCED_FACE ( 'NONE', ( #35, #29 ), #90, .F. ) ;
#48 = EDGE_LOOP ( 'NONE', ( #193 ) ) ;
#49 = CARTESIAN_POINT ( 'NONE',  ( 0.000000000000000000, 0.000000000000000000, 0.000000000000000000 ) ) ;
#50 = CARTESIAN_POINT ( 'NONE',  ( -14.50000000000000355, 0.000000000000000000, 0.000000000000000000 ) ) ;
#51 = DIRECTION ( 'NONE',  ( 1.927470528863119049E-16, -1.000000000000000000, 0.000000000000000000 ) ) ;
#52 = DATE_AND_TIME ( #234, #290 ) ;
#53 = ADVANCED_FACE ( 'NONE', ( #321, #62 ), #369, .F. ) ;
#54 = DIRECTION ( 'NONE',  ( -1.000000000000000000, -0.000000000000000000, -0.000000000000000000 ) ) ;
#55 = ORIENTED_EDGE ( 'NONE', *, *, #199, .T. ) ;
#56 = APPROVAL_DATE_TIME ( #187, #255 ) ;
#57 = CIRCLE ( 'NONE', #6, 27.00000000000000000 ) ;
#58 = CARTESIAN_POINT ( 'NONE',  ( -13.50000000000000000, 27.00000000000000711, 0.000000000000000000 ) ) ;
#59 = VERTEX_POINT ( 'NONE', #66 ) ;
#60 = CALENDAR_DATE ( 2021, 23, 8 ) ;
#61 = EDGE_LOOP ( 'NONE', ( #324 ) ) ;
#62 = FACE_OUTER_BOUND ( 'NONE', #65, .T. ) ;
#63 = ORIENTED_EDGE ( 'NONE', *, *, #64, .T. ) ;
#64 = EDGE_CURVE ( 'NONE', #2, #2, #105, .T. ) ;
#65 = EDGE_LOOP ( 'NONE', ( #239 ) ) ;
#66 = CARTESIAN_POINT ( 'NONE',  ( -13.50000000000000178, 15.00000000000000000, 0.000000000000000000 ) ) ;
#67 = CARTESIAN_POINT ( 'NONE',  ( 12.49999999999999822, 0.000000000000000000, 0.000000000000000000 ) ) ;
#68 = CC_DESIGN_APPROVAL ( #277, ( #149 ) ) ;
#69 = CARTESIAN_POINT ( 'NONE',  ( 13.50000000000000000, 5.143516556418883322E-15, 0.000000000000000000 ) ) ;
#70 = UNCERTAINTY_MEASURE_WITH_UNIT (LENGTH_MEASURE( 1.000000000000000082E-05 ), #44, 'distance_accuracy_value', 'NONE');
#71 = AXIS2_PLACEMENT_3D ( 'NONE', #118, #337, #23 ) ;
#72 = VERTEX_POINT ( 'NONE', #307 ) ;
#73 = PERSON_AND_ORGANIZATION ( #20, #82 ) ;
#74 = FACE_OUTER_BOUND ( 'NONE', #233, .T. ) ;
#75 = APPROVAL_STATUS ( 'not_yet_approved' ) ;
#76 = FACE_OUTER_BOUND ( 'NONE', #361, .T. ) ;
#77 = CC_DESIGN_PERSON_AND_ORGANIZATION_ASSIGNMENT ( #14, #251, ( #149 ) ) ;
#78 = ORIENTED_EDGE ( 'NONE', *, *, #46, .T. ) ;
#79 = VERTEX_POINT ( 'NONE', #352 ) ;
#80 = EDGE_LOOP ( 'NONE', ( #232 ) ) ;
#81 = CALENDAR_DATE ( 2021, 23, 8 ) ;
#82 = ORGANIZATION ( 'UNSPECIFIED', 'UNSPECIFIED', '' ) ;
#83 = ORIENTED_EDGE ( 'NONE', *, *, #46, .F. ) ;
#84 = ADVANCED_FACE ( 'NONE', ( #271, #247 ), #269, .F. ) ;
#85 = FACE_OUTER_BOUND ( 'NONE', #366, .T. ) ;
#86 = APPROVAL_ROLE ( '' ) ;
#87 = DIRECTION ( 'NONE',  ( -1.000000000000000000, -0.000000000000000000, -0.000000000000000000 ) ) ;
#88 = EDGE_LOOP ( 'NONE', ( #311 ) ) ;
#89 = DIRECTION ( 'NONE',  ( -1.000000000000000000, -0.000000000000000000, -0.000000000000000000 ) ) ;
#90 = CYLINDRICAL_SURFACE ( 'NONE', #39, 15.00000000000000000 ) ;
#91 = CIRCLE ( 'NONE', #112, 27.00000000000000000 ) ;
#92 = TOROIDAL_SURFACE ( 'NONE', #328, 16.00000000000000000, 1.000000000000000000 ) ;
#93 = DIRECTION ( 'NONE',  ( -1.836970198721029688E-16, 1.000000000000000000, 0.000000000000000000 ) ) ;
#94 = PERSON_AND_ORGANIZATION ( #20, #82 ) ;
#95 = DIRECTION ( 'NONE',  ( -1.000000000000000000, -1.836970198721029688E-16, -0.000000000000000000 ) ) ;
#96 = CARTESIAN_POINT ( 'NONE',  ( 13.50000000000000000, 0.000000000000000000, 0.000000000000000000 ) ) ;
#97 = EDGE_CURVE ( 'NONE', #267, #267, #120, .T. ) ;
#98 = CYLINDRICAL_SURFACE ( 'NONE', #5, 27.00000000000000000 ) ;
#99 = DIRECTION ( 'NONE',  ( 0.000000000000000000, 0.000000000000000000, 1.000000000000000000 ) ) ;
#100 = CARTESIAN_POINT ( 'NONE',  ( 14.49999999999999467, 27.00000000000000711, 0.000000000000000000 ) ) ;
#101 = CARTESIAN_POINT ( 'NONE',  ( -14.49999999999999645, 0.000000000000000000, 0.000000000000000000 ) ) ;
#102 = PRODUCT_RELATED_PRODUCT_CATEGORY ( 'detail', '', ( #125 ) ) ;
#103 =( NAMED_UNIT ( * ) PLANE_ANGLE_UNIT ( ) SI_UNIT ( $, .RADIAN. ) );
#104 = COORDINATED_UNIVERSAL_TIME_OFFSET ( 1, 0, .AHEAD. ) ;
#105 = CIRCLE ( 'NONE', #292, 15.00000000000000000 ) ;
#106 = CIRCLE ( 'NONE', #212, 27.00000000000000000 ) ;
#107 = EDGE_LOOP ( 'NONE', ( #310 ) ) ;
#108 = APPROVAL_ROLE ( '' ) ;
#109 = EDGE_LOOP ( 'NONE', ( #213 ) ) ;
#110 = DIRECTION ( 'NONE',  ( -1.000000000000000000, -0.000000000000000000, -0.000000000000000000 ) ) ;
#111 = ORIENTED_EDGE ( 'NONE', *, *, #34, .T. ) ;
#112 = AXIS2_PLACEMENT_3D ( 'NONE', #122, #342, #214 ) ;
#113 = EDGE_LOOP ( 'NONE', ( #208 ) ) ;
#114 = APPROVAL_STATUS ( 'not_yet_approved' ) ;
#115 = DIRECTION ( 'NONE',  ( -1.000000000000000000, -1.836970198721029688E-16, -0.000000000000000000 ) ) ;
#116 = ADVANCED_FACE ( 'NONE', ( #3, #347 ), #98, .T. ) ;
#117 = CARTESIAN_POINT ( 'NONE',  ( -14.50000000000000355, 0.000000000000000000, 0.000000000000000000 ) ) ;
#118 = CARTESIAN_POINT ( 'NONE',  ( -12.50000000000000000, 0.000000000000000000, 0.000000000000000000 ) ) ;
#119 = AXIS2_PLACEMENT_3D ( 'NONE', #312, #54, #186 ) ;
#120 = CIRCLE ( 'NONE', #332, 38.99999999999999289 ) ;
#121 = CIRCLE ( 'NONE', #319, 27.00000000000000000 ) ;
#122 = CARTESIAN_POINT ( 'NONE',  ( -13.50000000000000000, 1.836970198721037823E-16, 0.000000000000000000 ) ) ;
#123 = MANIFOLD_SOLID_BREP ( 'Fillet1', #323 ) ;
#124 = EDGE_LOOP ( 'NONE', ( #162 ) ) ;
#125 = PRODUCT ( 'LFR 5207-30KDD', 'LFR 5207-30KDD', '', ( #138 ) ) ;
#126 =( NAMED_UNIT ( * ) SI_UNIT ( $, .STERADIAN. ) SOLID_ANGLE_UNIT ( ) );
#127 = EDGE_LOOP ( 'NONE', ( #192 ) ) ;
#128 = CARTESIAN_POINT ( 'NONE',  ( 13.50000000000000000, 5.143516556418883322E-15, 27.00000000000000000 ) ) ;
#129 = CIRCLE ( 'NONE', #37, 39.99999999999999289 ) ;
#130 = CIRCLE ( 'NONE', #298, 39.99999999999999289 ) ;
#131 = PLANE ( 'NONE',  #45 ) ;
#132 = CARTESIAN_POINT ( 'NONE',  ( 10.19803902718556721, 0.000000000000000000, 0.000000000000000000 ) ) ;
#133 = CC_DESIGN_PERSON_AND_ORGANIZATION_ASSIGNMENT ( #73, #200, ( #279 ) ) ;
#134 = DIRECTION ( 'NONE',  ( 2.168404344971008868E-16, -1.000000000000000000, 0.000000000000000000 ) ) ;
#135 = DIRECTION ( 'NONE',  ( 1.000000000000000000, 1.836970198721029688E-16, 0.000000000000000000 ) ) ;
#136 = LOCAL_TIME ( 16, 51, 12.00000000000000000, #104 ) ;
#137 = DIRECTION ( 'NONE',  ( 0.000000000000000000, 0.000000000000000000, 1.000000000000000000 ) ) ;
#138 = MECHANICAL_CONTEXT ( 'NONE', #345, 'mechanical' ) ;
#139 = CC_DESIGN_APPROVAL ( #189, ( #15 ) ) ;
#140 = APPLICATION_PROTOCOL_DEFINITION ( 'international standard', 'config_control_design', 1994, #345 ) ;
#141 = AXIS2_PLACEMENT_3D ( 'NONE', #32, #30, #93 ) ;
#142 = CIRCLE ( 'NONE', #243, 16.00000000000000000 ) ;
#143 = ADVANCED_FACE ( 'NONE', ( #242, #210 ), #318, .F. ) ;
#144 = DIRECTION ( 'NONE',  ( -1.000000000000000000, -1.836970198721029688E-16, -0.000000000000000000 ) ) ;
#145 = PERSON_AND_ORGANIZATION ( #20, #82 ) ;
#146 = PERSON_AND_ORGANIZATION ( #20, #82 ) ;
#147 = ORIENTED_EDGE ( 'NONE', *, *, #199, .F. ) ;
#148 = DIRECTION ( 'NONE',  ( 0.000000000000000000, 0.000000000000000000, 1.000000000000000000 ) ) ;
#149 = PRODUCT_DEFINITION_FORMATION_WITH_SPECIFIED_SOURCE ( 'ANY', '', #125, .NOT_KNOWN. ) ;
#150 = EDGE_LOOP ( 'NONE', ( #157 ) ) ;
#151 = ADVANCED_FACE ( 'NONE', ( #155, #76 ), #131, .F. ) ;
#152 = CARTESIAN_POINT ( 'NONE',  ( 14.49999999999999645, 5.327213576290986044E-15, 0.000000000000000000 ) ) ;
#153 = APPLICATION_PROTOCOL_DEFINITION ( 'international standard', 'config_control_design', 1994, #224 ) ;
#154 = DIRECTION ( 'NONE',  ( -1.000000000000000000, -1.836970198721029688E-16, -0.000000000000000000 ) ) ;
#155 = FACE_BOUND ( 'NONE', #236, .T. ) ;
#156 = CARTESIAN_POINT ( 'NONE',  ( -13.49999999999999822, 1.836970198721039795E-16, 0.000000000000000000 ) ) ;
#157 = ORIENTED_EDGE ( 'NONE', *, *, #254, .F. ) ;
#158 = CARTESIAN_POINT ( 'NONE',  ( -13.50000000000000000, 1.836970198721037823E-16, -27.00000000000000000 ) ) ;
#159 = EDGE_CURVE ( 'NONE', #246, #246, #130, .T. ) ;
#160 = CARTESIAN_POINT ( 'NONE',  ( 13.49999999999999645, 5.143516556418882533E-15, 0.000000000000000000 ) ) ;
#161 = ADVANCED_FACE ( 'NONE', ( #13, #296 ), #92, .T. ) ;
#162 = ORIENTED_EDGE ( 'NONE', *, *, #349, .T. ) ;
#163 = CARTESIAN_POINT ( 'NONE',  ( 10.19803902718556721, 0.000000000000000000, 39.99999999999999289 ) ) ;
#164 = DIRECTION ( 'NONE',  ( 1.000000000000000000, 0.000000000000000000, 0.000000000000000000 ) ) ;
#165 = AXIS2_PLACEMENT_3D ( 'NONE', #245, #95, #346 ) ;
#166 = VERTEX_POINT ( 'NONE', #174 ) ;
#167 = EDGE_CURVE ( 'NONE', #4, #4, #57, .T. ) ;
#168 = DIRECTION ( 'NONE',  ( -1.000000000000000000, -0.000000000000000000, -0.000000000000000000 ) ) ;
#169 = DIRECTION ( 'NONE',  ( 0.000000000000000000, 0.000000000000000000, -1.000000000000000000 ) ) ;
#170 = DATE_AND_TIME ( #301, #136 ) ;
#171 = FACE_OUTER_BOUND ( 'NONE', #107, .T. ) ;
#172 = CIRCLE ( 'NONE', #165, 15.00000000000000000 ) ;
#173 = DIRECTION ( 'NONE',  ( 1.836970198721029688E-16, -1.000000000000000000, 0.000000000000000000 ) ) ;
#174 = CARTESIAN_POINT ( 'NONE',  ( -14.49999999999999467, -27.00000000000000000, 0.000000000000000000 ) ) ;
#175 = EDGE_LOOP ( 'NONE', ( #147 ) ) ;
#176 = DIRECTION ( 'NONE',  ( 0.000000000000000000, 0.000000000000000000, 1.000000000000000000 ) ) ;
#177 = ADVANCED_FACE ( 'NONE', ( #248, #273 ), #351, .T. ) ;
#178 = AXIS2_PLACEMENT_3D ( 'NONE', #229, #168, #223 ) ;
#179 = EDGE_LOOP ( 'NONE', ( #288 ) ) ;
#180 = CARTESIAN_POINT ( 'NONE',  ( -13.50000000000000000, 0.000000000000000000, 0.000000000000000000 ) ) ;
#181 = APPROVAL_DATE_TIME ( #52, #189 ) ;
#182 = FACE_OUTER_BOUND ( 'NONE', #109, .T. ) ;
#183 = EDGE_LOOP ( 'NONE', ( #83 ) ) ;
#184 = AXIS2_PLACEMENT_3D ( 'NONE', #67, #194, #274 ) ;
#185 = DIRECTION ( 'NONE',  ( 1.000000000000000000, 0.000000000000000000, 0.000000000000000000 ) ) ;
#186 = DIRECTION ( 'NONE',  ( 0.000000000000000000, 0.000000000000000000, 1.000000000000000000 ) ) ;
#187 = DATE_AND_TIME ( #60, #217 ) ;
#188 = EDGE_LOOP ( 'NONE', ( #78 ) ) ;
#189 = APPROVAL ( #114, 'UNSPECIFIED' ) ;
#190 = EDGE_LOOP ( 'NONE', ( #260 ) ) ;
#191 = ADVANCED_BREP_SHAPE_REPRESENTATION ( 'LFR 5207-30KDD', ( #123, #295 ), #250 ) ;
#192 = ORIENTED_EDGE ( 'NONE', *, *, #353, .T. ) ;
#193 = ORIENTED_EDGE ( 'NONE', *, *, #159, .F. ) ;
#194 = DIRECTION ( 'NONE',  ( -1.000000000000000000, -0.000000000000000000, -0.000000000000000000 ) ) ;
#195 = APPROVAL_PERSON_ORGANIZATION ( #94, #277, #108 ) ;
#196 = VERTEX_POINT ( 'NONE', #40 ) ;
#197 = CARTESIAN_POINT ( 'NONE',  ( -14.49999999999999822, 9.111040679670784365E-31, 0.000000000000000000 ) ) ;
#198 = CIRCLE ( 'NONE', #178, 39.99999999999999289 ) ;
#199 = EDGE_CURVE ( 'NONE', #196, #196, #198, .T. ) ;
#200 = PERSON_AND_ORGANIZATION_ROLE ( 'classification_officer' ) ;
#201 = DIRECTION ( 'NONE',  ( 0.000000000000000000, 0.000000000000000000, 1.000000000000000000 ) ) ;
#202 = CARTESIAN_POINT ( 'NONE',  ( 12.49999999999999822, 0.000000000000000000, 39.99999999999999289 ) ) ;
#203 = ORIENTED_EDGE ( 'NONE', *, *, #97, .T. ) ;
#204 = ORIENTED_EDGE ( 'NONE', *, *, #34, .F. ) ;
#205 = ORIENTED_EDGE ( 'NONE', *, *, #97, .F. ) ;
#206 = FACE_OUTER_BOUND ( 'NONE', #175, .T. ) ;
#207 = COORDINATED_UNIVERSAL_TIME_OFFSET ( 1, 0, .AHEAD. ) ;
#208 = ORIENTED_EDGE ( 'NONE', *, *, #286, .T. ) ;
#209 = PERSON_AND_ORGANIZATION_ROLE ( 'creator' ) ;
#210 = FACE_BOUND ( 'NONE', #188, .T. ) ;
#211 = FACE_OUTER_BOUND ( 'NONE', #190, .T. ) ;
#212 = AXIS2_PLACEMENT_3D ( 'NONE', #197, #325, #7 ) ;
#213 = ORIENTED_EDGE ( 'NONE', *, *, #263, .F. ) ;
#214 = DIRECTION ( 'NONE',  ( 0.000000000000000000, 0.000000000000000000, -1.000000000000000000 ) ) ;
#215 = PRODUCT_DEFINITION_SHAPE ( 'NONE', 'NONE',  #15 ) ;
#216 = DESIGN_CONTEXT ( 'detailed design', #224, 'design' ) ;
#217 = LOCAL_TIME ( 16, 51, 12.00000000000000000, #363 ) ;
#218 = DIRECTION ( 'NONE',  ( -1.000000000000000000, -1.836970198721029688E-16, -0.000000000000000000 ) ) ;
#219 = AXIS2_PLACEMENT_3D ( 'NONE', #58, #185, #26 ) ;
#220 = DIRECTION ( 'NONE',  ( 0.000000000000000000, 0.000000000000000000, 1.000000000000000000 ) ) ;
#221 = CC_DESIGN_PERSON_AND_ORGANIZATION_ASSIGNMENT ( #11, #228, ( #149 ) ) ;
#222 = DIRECTION ( 'NONE',  ( -1.000000000000000000, -0.000000000000000000, -0.000000000000000000 ) ) ;
#223 = DIRECTION ( 'NONE',  ( 0.000000000000000000, 0.000000000000000000, 1.000000000000000000 ) ) ;
#224 = APPLICATION_CONTEXT ( 'configuration controlled 3d designs of mechanical parts and assemblies' ) ;
#225 = VERTEX_POINT ( 'NONE', #202 ) ;
#226 = DIRECTION ( 'NONE',  ( 1.000000000000000000, 0.000000000000000000, 0.000000000000000000 ) ) ;
#227 = ADVANCED_FACE ( 'NONE', ( #74, #303 ), #230, .T. ) ;
#228 = PERSON_AND_ORGANIZATION_ROLE ( 'design_supplier' ) ;
#229 = CARTESIAN_POINT ( 'NONE',  ( -10.19803902718556543, 0.000000000000000000, 0.000000000000000000 ) ) ;
#230 = TOROIDAL_SURFACE ( 'NONE', #356, 38.99999999999999289, 1.000000000000000000 ) ;
#231 = ADVANCED_FACE ( 'NONE', ( #253, #171 ), #281, .T. ) ;
#232 = ORIENTED_EDGE ( 'NONE', *, *, #241, .F. ) ;
#233 = EDGE_LOOP ( 'NONE', ( #308 ) ) ;
#234 = CALENDAR_DATE ( 2021, 23, 8 ) ;
#235 = AXIS2_PLACEMENT_3D ( 'NONE', #50, #144, #51 ) ;
#236 = EDGE_LOOP ( 'NONE', ( #261 ) ) ;
#237 = CYLINDRICAL_SURFACE ( 'NONE', #18, 39.99999999999999289 ) ;
#238 = PERSON_AND_ORGANIZATION ( #20, #82 ) ;
#239 = ORIENTED_EDGE ( 'NONE', *, *, #241, .T. ) ;
#240 = APPROVAL_STATUS ( 'not_yet_approved' ) ;
#241 = EDGE_CURVE ( 'NONE', #166, #166, #106, .T. ) ;
#242 = FACE_OUTER_BOUND ( 'NONE', #127, .T. ) ;
#243 = AXIS2_PLACEMENT_3D ( 'NONE', #38, #135, #42 ) ;
#244 = DIRECTION ( 'NONE',  ( 1.000000000000000000, 1.836970198721029688E-16, 0.000000000000000000 ) ) ;
#245 = CARTESIAN_POINT ( 'NONE',  ( -13.49999999999999822, 1.836970198721042013E-16, 0.000000000000000000 ) ) ;
#246 = VERTEX_POINT ( 'NONE', #163 ) ;
#247 = FACE_BOUND ( 'NONE', #257, .T. ) ;
#248 = FACE_OUTER_BOUND ( 'NONE', #124, .T. ) ;
#249 = CARTESIAN_POINT ( 'NONE',  ( 14.49999999999999822, 5.327213576290986044E-15, 0.000000000000000000 ) ) ;
#250 =( GEOMETRIC_REPRESENTATION_CONTEXT ( 3 ) GLOBAL_UNCERTAINTY_ASSIGNED_CONTEXT ( ( #70 ) ) GLOBAL_UNIT_ASSIGNED_CONTEXT ( ( #44, #103, #126 ) ) REPRESENTATION_CONTEXT ( 'NONE', 'WORKASPACE' ) );
#251 = PERSON_AND_ORGANIZATION_ROLE ( 'creator' ) ;
#252 = CARTESIAN_POINT ( 'NONE',  ( 13.49999999999999645, 5.143516556418882533E-15, 0.000000000000000000 ) ) ;
#253 = FACE_OUTER_BOUND ( 'NONE', #291, .T. ) ;
#254 = EDGE_CURVE ( 'NONE', #79, #79, #19, .T. ) ;
#255 = APPROVAL ( #240, 'UNSPECIFIED' ) ;
#256 = VERTEX_POINT ( 'NONE', #304 ) ;
#257 = EDGE_LOOP ( 'NONE', ( #336 ) ) ;
#258 = CARTESIAN_POINT ( 'NONE',  ( 12.49999999999999822, 0.000000000000000000, 0.000000000000000000 ) ) ;
#259 = PERSON_AND_ORGANIZATION ( #20, #82 ) ;
#260 = ORIENTED_EDGE ( 'NONE', *, *, #159, .T. ) ;
#261 = ORIENTED_EDGE ( 'NONE', *, *, #254, .T. ) ;
#262 = CARTESIAN_POINT ( 'NONE',  ( -14.49999999999999645, 0.000000000000000000, 0.000000000000000000 ) ) ;
#263 = EDGE_CURVE ( 'NONE', #10, #10, #142, .T. ) ;
#264 = DATE_AND_TIME ( #25, #340 ) ;
#265 = ORIENTED_EDGE ( 'NONE', *, *, #286, .F. ) ;
#266 = CARTESIAN_POINT ( 'NONE',  ( -14.50000000000000355, 0.000000000000000000, 0.000000000000000000 ) ) ;
#267 = VERTEX_POINT ( 'NONE', #31 ) ;
#268 = CARTESIAN_POINT ( 'NONE',  ( 13.50000000000000000, 27.00000000000000711, 0.000000000000000000 ) ) ;
#269 = PLANE ( 'NONE',  #343 ) ;
#270 = EDGE_CURVE ( 'NONE', #72, #72, #344, .T. ) ;
#271 = FACE_OUTER_BOUND ( 'NONE', #278, .T. ) ;
#272 = AXIS2_PLACEMENT_3D ( 'NONE', #101, #222, #201 ) ;
#273 = FACE_OUTER_BOUND ( 'NONE', #48, .T. ) ;
#274 = DIRECTION ( 'NONE',  ( 0.000000000000000000, 0.000000000000000000, 1.000000000000000000 ) ) ;
#275 = APPROVAL_DATE_TIME ( #309, #277 ) ;
#276 = DIRECTION ( 'NONE',  ( -1.000000000000000000, -1.836970198721029688E-16, -0.000000000000000000 ) ) ;
#277 = APPROVAL ( #75, 'UNSPECIFIED' ) ;
#278 = EDGE_LOOP ( 'NONE', ( #203 ) ) ;
#279 = SECURITY_CLASSIFICATION ( '', '', #306 ) ;
#280 = ORIENTED_EDGE ( 'NONE', *, *, #270, .T. ) ;
#281 = TOROIDAL_SURFACE ( 'NONE', #184, 38.99999999999999289, 1.000000000000000000 ) ;
#282 = FACE_OUTER_BOUND ( 'NONE', #338, .T. ) ;
#283 = SHAPE_DEFINITION_REPRESENTATION ( #215, #191 ) ;
#284 = PERSON_AND_ORGANIZATION_ROLE ( 'design_owner' ) ;
#285 = DIRECTION ( 'NONE',  ( -0.000000000000000000, 0.000000000000000000, 1.000000000000000000 ) ) ;
#286 = EDGE_CURVE ( 'NONE', #12, #12, #121, .T. ) ;
#287 = DIRECTION ( 'NONE',  ( 0.000000000000000000, 0.000000000000000000, -1.000000000000000000 ) ) ;
#288 = ORIENTED_EDGE ( 'NONE', *, *, #263, .T. ) ;
#289 = DIRECTION ( 'NONE',  ( -1.836970198721029688E-16, 1.000000000000000000, 0.000000000000000000 ) ) ;
#290 = LOCAL_TIME ( 16, 51, 12.00000000000000000, #207 ) ;
#291 = EDGE_LOOP ( 'NONE', ( #205 ) ) ;
#292 = AXIS2_PLACEMENT_3D ( 'NONE', #160, #244, #294 ) ;
#293 = DIRECTION ( 'NONE',  ( 2.312964634635742957E-16, -1.000000000000000000, 0.000000000000000000 ) ) ;
#294 = DIRECTION ( 'NONE',  ( 2.312964634635742957E-16, -1.000000000000000000, 0.000000000000000000 ) ) ;
#295 = AXIS2_PLACEMENT_3D ( 'NONE', #49, #176, #17 ) ;
#296 = FACE_OUTER_BOUND ( 'NONE', #150, .T. ) ;
#297 = TOROIDAL_SURFACE ( 'NONE', #119, 51.00000000000000000, 15.00000000000000000 ) ;
#298 = AXIS2_PLACEMENT_3D ( 'NONE', #132, #350, #99 ) ;
#299 = DIRECTION ( 'NONE',  ( -1.000000000000000000, -0.000000000000000000, -0.000000000000000000 ) ) ;
#300 = DIRECTION ( 'NONE',  ( 1.836970198721029688E-16, -1.000000000000000000, 0.000000000000000000 ) ) ;
#301 = CALENDAR_DATE ( 2021, 23, 8 ) ;
#302 = CC_DESIGN_SECURITY_CLASSIFICATION ( #279, ( #149 ) ) ;
#303 = FACE_OUTER_BOUND ( 'NONE', #61, .T. ) ;
#304 = CARTESIAN_POINT ( 'NONE',  ( -13.50000000000000000, 0.000000000000000000, -38.99999999999999289 ) ) ;
#305 = CC_DESIGN_PERSON_AND_ORGANIZATION_ASSIGNMENT ( #238, #209, ( #15 ) ) ;
#306 = SECURITY_CLASSIFICATION_LEVEL ( 'unclassified' ) ;
#307 = CARTESIAN_POINT ( 'NONE',  ( -12.50000000000000000, 0.000000000000000000, -39.99999999999999289 ) ) ;
#308 = ORIENTED_EDGE ( 'NONE', *, *, #270, .F. ) ;
#309 = DATE_AND_TIME ( #81, #16 ) ;
#310 = ORIENTED_EDGE ( 'NONE', *, *, #349, .F. ) ;
#311 = ORIENTED_EDGE ( 'NONE', *, *, #167, .F. ) ;
#312 = CARTESIAN_POINT ( 'NONE',  ( 0.000000000000000000, 0.000000000000000000, 0.000000000000000000 ) ) ;
#313 = COORDINATED_UNIVERSAL_TIME_OFFSET ( 1, 0, .AHEAD. ) ;
#314 = ADVANCED_FACE ( 'NONE', ( #27, #367 ), #335, .T. ) ;
#315 = EDGE_LOOP ( 'NONE', ( #322 ) ) ;
#316 = CC_DESIGN_DATE_AND_TIME_ASSIGNMENT ( #170, #331, ( #279 ) ) ;
#317 = AXIS2_PLACEMENT_3D ( 'NONE', #156, #36, #289 ) ;
#318 = PLANE ( 'NONE',  #219 ) ;
#319 = AXIS2_PLACEMENT_3D ( 'NONE', #152, #154, #341 ) ;
#320 = EDGE_LOOP ( 'NONE', ( #63 ) ) ;
#321 = FACE_BOUND ( 'NONE', #179, .T. ) ;
#322 = ORIENTED_EDGE ( 'NONE', *, *, #64, .F. ) ;
#323 = CLOSED_SHELL ( 'NONE', ( #314, #116, #53, #151, #47, #362, #355, #143, #84, #177, #231, #161, #227, #368 ) ) ;
#324 = ORIENTED_EDGE ( 'NONE', *, *, #353, .F. ) ;
#325 = DIRECTION ( 'NONE',  ( -1.000000000000000000, -1.836970198721029688E-16, -0.000000000000000000 ) ) ;
#326 = CARTESIAN_POINT ( 'NONE',  ( -12.50000000000000000, 0.000000000000000000, 0.000000000000000000 ) ) ;
#327 = TOROIDAL_SURFACE ( 'NONE', #317, 16.00000000000000000, 1.000000000000000000 ) ;
#328 = AXIS2_PLACEMENT_3D ( 'NONE', #252, #276, #173 ) ;
#329 = DIRECTION ( 'NONE',  ( -1.000000000000000000, -1.836970198721029688E-16, 0.000000000000000000 ) ) ;
#330 = CARTESIAN_POINT ( 'NONE',  ( 14.50000000000000178, -26.99999999999999289, 0.000000000000000000 ) ) ;
#331 = DATE_TIME_ROLE ( 'classification_date' ) ;
#332 = AXIS2_PLACEMENT_3D ( 'NONE', #96, #164, #220 ) ;
#333 = COORDINATED_UNIVERSAL_TIME_OFFSET ( 1, 0, .AHEAD. ) ;
#334 = EDGE_LOOP ( 'NONE', ( #111 ) ) ;
#335 = CYLINDRICAL_SURFACE ( 'NONE', #235, 27.00000000000000000 ) ;
#336 = ORIENTED_EDGE ( 'NONE', *, *, #167, .T. ) ;
#337 = DIRECTION ( 'NONE',  ( 1.000000000000000000, 0.000000000000000000, 0.000000000000000000 ) ) ;
#338 = EDGE_LOOP ( 'NONE', ( #280 ) ) ;
#339 = DIRECTION ( 'NONE',  ( 1.927470528863119049E-16, -1.000000000000000000, 0.000000000000000000 ) ) ;
#340 = LOCAL_TIME ( 16, 51, 12.00000000000000000, #313 ) ;
#341 = DIRECTION ( 'NONE',  ( 1.927470528863119049E-16, -1.000000000000000000, 0.000000000000000000 ) ) ;
#342 = DIRECTION ( 'NONE',  ( 1.000000000000000000, 0.000000000000000000, 0.000000000000000000 ) ) ;
#343 = AXIS2_PLACEMENT_3D ( 'NONE', #268, #1, #285 ) ;
#344 = CIRCLE ( 'NONE', #71, 39.99999999999999289 ) ;
#345 = APPLICATION_CONTEXT ( 'configuration controlled 3d designs of mechanical parts and assemblies' ) ;
#346 = DIRECTION ( 'NONE',  ( -2.312964634635742957E-16, 1.000000000000000000, 0.000000000000000000 ) ) ;
#347 = FACE_OUTER_BOUND ( 'NONE', #88, .T. ) ;
#348 = CARTESIAN_POINT ( 'NONE',  ( 13.50000000000000000, -14.99999999999999467, 0.000000000000000000 ) ) ;
#349 = EDGE_CURVE ( 'NONE', #225, #225, #129, .T. ) ;
#350 = DIRECTION ( 'NONE',  ( -1.000000000000000000, -0.000000000000000000, -0.000000000000000000 ) ) ;
#351 = CYLINDRICAL_SURFACE ( 'NONE', #272, 39.99999999999999289 ) ;
#352 = CARTESIAN_POINT ( 'NONE',  ( 14.50000000000000178, -15.99999999999999289, 0.000000000000000000 ) ) ;
#353 = EDGE_CURVE ( 'NONE', #256, #256, #354, .T. ) ;
#354 = CIRCLE ( 'NONE', #24, 38.99999999999999289 ) ;
#355 = ADVANCED_FACE ( 'NONE', ( #282, #85 ), #237, .T. ) ;
#356 = AXIS2_PLACEMENT_3D ( 'NONE', #326, #226, #169 ) ;
#357 = EDGE_LOOP ( 'NONE', ( #204 ) ) ;
#358 = APPROVAL_ROLE ( '' ) ;
#359 = APPROVAL_PERSON_ORGANIZATION ( #146, #255, #86 ) ;
#360 = CC_DESIGN_PERSON_AND_ORGANIZATION_ASSIGNMENT ( #145, #284, ( #125 ) ) ;
#361 = EDGE_LOOP ( 'NONE', ( #265 ) ) ;
#362 = ADVANCED_FACE ( 'NONE', ( #206, #211 ), #297, .F. ) ;
#363 = COORDINATED_UNIVERSAL_TIME_OFFSET ( 1, 0, .AHEAD. ) ;
#364 = FACE_OUTER_BOUND ( 'NONE', #357, .T. ) ;
#365 = DATE_TIME_ROLE ( 'creation_date' ) ;
#366 = EDGE_LOOP ( 'NONE', ( #55 ) ) ;
#367 = FACE_OUTER_BOUND ( 'NONE', #183, .T. ) ;
#368 = ADVANCED_FACE ( 'NONE', ( #182, #364 ), #327, .T. ) ;
#369 = PLANE ( 'NONE',  #141 ) ;
ENDSEC;
END-ISO-10303-21;
