ISO-10303-21;
HEADER;
FILE_DESCRIPTION (( 'STEP AP203' ),
    '1' );
FILE_NAME ('LFR 5206-25-KDD.step',
    '2021-08-23T14:51:11',
    ( '' ),
    ( '' ),
    'SwSTEP 2.0',
    'SolidWorks 2020',
    '' );
FILE_SCHEMA (( 'CONFIG_CONTROL_DESIGN' ));
ENDSEC;

DATA;
#1 = FACE_OUTER_BOUND ( 'NONE', #259, .T. ) ;
#2 = ORIENTED_EDGE ( 'NONE', *, *, #157, .F. ) ;
#3 = DIRECTION ( 'NONE',  ( 1.000000000000000000, 0.000000000000000000, 0.000000000000000000 ) ) ;
#4 = DESIGN_CONTEXT ( 'detailed design', #163, 'design' ) ;
#5 = AXIS2_PLACEMENT_3D ( 'NONE', #325, #349, #225 ) ;
#6 = LOCAL_TIME ( 16, 51, 11.00000000000000000, #301 ) ;
#7 = CC_DESIGN_PERSON_AND_ORGANIZATION_ASSIGNMENT ( #95, #123, ( #175 ) ) ;
#8 = DIRECTION ( 'NONE',  ( -1.000000000000000000, -0.000000000000000000, -0.000000000000000000 ) ) ;
#9 = DATE_AND_TIME ( #134, #359 ) ;
#10 = CARTESIAN_POINT ( 'NONE',  ( 12.29999999999999538, 4.629164900776994438E-15, 0.000000000000000000 ) ) ;
#11 = CARTESIAN_POINT ( 'NONE',  ( -11.90000000000000036, 1.836970198721031413E-16, -22.50000000000000000 ) ) ;
#12 = DIRECTION ( 'NONE',  ( -1.000000000000000000, -1.836970198721029934E-16, -0.000000000000000000 ) ) ;
#13 = AXIS2_PLACEMENT_3D ( 'NONE', #232, #25, #263 ) ;
#14 = PLANE ( 'NONE',  #246 ) ;
#15 = CARTESIAN_POINT ( 'NONE',  ( 0.000000000000000000, 0.000000000000000000, 0.000000000000000000 ) ) ;
#16 = VERTEX_POINT ( 'NONE', #199 ) ;
#17 = DIRECTION ( 'NONE',  ( 0.000000000000000000, 0.000000000000000000, 1.000000000000000000 ) ) ;
#18 = EDGE_LOOP ( 'NONE', ( #29 ) ) ;
#19 = ADVANCED_BREP_SHAPE_REPRESENTATION ( 'LFR 5206-25-KDD', ( #117, #121 ), #181 ) ;
#20 = CARTESIAN_POINT ( 'NONE',  ( -12.29999999999999893, 1.102182119232623088E-16, 0.000000000000000000 ) ) ;
#21 = DIRECTION ( 'NONE',  ( -1.000000000000000000, -0.000000000000000000, -0.000000000000000000 ) ) ;
#22 = ORIENTED_EDGE ( 'NONE', *, *, #23, .T. ) ;
#23 = EDGE_CURVE ( 'NONE', #277, #277, #320, .T. ) ;
#24 = AXIS2_PLACEMENT_3D ( 'NONE', #40, #191, #327 ) ;
#25 = DIRECTION ( 'NONE',  ( -1.000000000000000000, -0.000000000000000000, -0.000000000000000000 ) ) ;
#26 = EDGE_LOOP ( 'NONE', ( #366 ) ) ;
#27 = EDGE_CURVE ( 'NONE', #253, #253, #85, .T. ) ;
#28 = EDGE_LOOP ( 'NONE', ( #143 ) ) ;
#29 = ORIENTED_EDGE ( 'NONE', *, *, #244, .F. ) ;
#30 = DIRECTION ( 'NONE',  ( -1.324216393875425095E-16, 1.000000000000000000, 0.000000000000000000 ) ) ;
#31 = EDGE_CURVE ( 'NONE', #72, #72, #281, .T. ) ;
#32 = PRODUCT_DEFINITION ( 'UNKNOWN', '', #175, #4 ) ;
#33 = DIRECTION ( 'NONE',  ( 0.000000000000000000, 0.000000000000000000, -1.000000000000000000 ) ) ;
#34 = AXIS2_PLACEMENT_3D ( 'NONE', #273, #200, #305 ) ;
#35 = CALENDAR_DATE ( 2021, 23, 8 ) ;
#36 = ORGANIZATION ( 'UNSPECIFIED', 'UNSPECIFIED', '' ) ;
#37 = DIRECTION ( 'NONE',  ( -1.000000000000000000, -0.000000000000000000, -0.000000000000000000 ) ) ;
#38 = CALENDAR_DATE ( 2021, 23, 8 ) ;
#39 = ORIENTED_EDGE ( 'NONE', *, *, #173, .T. ) ;
#40 = CARTESIAN_POINT ( 'NONE',  ( -12.90000000000000213, 0.000000000000000000, 0.000000000000000000 ) ) ;
#41 = FACE_OUTER_BOUND ( 'NONE', #147, .T. ) ;
#42 = CIRCLE ( 'NONE', #13, 22.50000000000000000 ) ;
#43 = DIRECTION ( 'NONE',  ( 1.000000000000000000, 0.000000000000000000, 0.000000000000000000 ) ) ;
#44 = DIRECTION ( 'NONE',  ( 0.000000000000000000, 0.000000000000000000, 1.000000000000000000 ) ) ;
#45 = ADVANCED_FACE ( 'NONE', ( #122, #215 ), #268, .F. ) ;
#46 = CYLINDRICAL_SURFACE ( 'NONE', #50, 36.00000000000000000 ) ;
#47 = DIRECTION ( 'NONE',  ( 0.000000000000000000, 0.000000000000000000, 1.000000000000000000 ) ) ;
#48 = CARTESIAN_POINT ( 'NONE',  ( -12.90000000000000213, 0.000000000000000000, 0.000000000000000000 ) ) ;
#49 = VERTEX_POINT ( 'NONE', #287 ) ;
#50 = AXIS2_PLACEMENT_3D ( 'NONE', #316, #76, #47 ) ;
#51 = CC_DESIGN_APPROVAL ( #75, ( #175 ) ) ;
#52 = ORIENTED_EDGE ( 'NONE', *, *, #344, .T. ) ;
#53 = FACE_OUTER_BOUND ( 'NONE', #74, .T. ) ;
#54 = EDGE_CURVE ( 'NONE', #334, #334, #208, .T. ) ;
#55 = CARTESIAN_POINT ( 'NONE',  ( 12.29999999999999716, -12.49999999999999467, 0.000000000000000000 ) ) ;
#56 = EDGE_LOOP ( 'NONE', ( #302 ) ) ;
#57 = EDGE_LOOP ( 'NONE', ( #177 ) ) ;
#58 = CARTESIAN_POINT ( 'NONE',  ( 11.90000000000000036, 4.555686092828155084E-15, 22.50000000000000000 ) ) ;
#59 = CIRCLE ( 'NONE', #254, 35.39999999999999147 ) ;
#60 = ORIENTED_EDGE ( 'NONE', *, *, #362, .F. ) ;
#61 = AXIS2_PLACEMENT_3D ( 'NONE', #294, #118, #248 ) ;
#62 = APPROVAL ( #64, 'UNSPECIFIED' ) ;
#63 = ORIENTED_EDGE ( 'NONE', *, *, #282, .T. ) ;
#64 = APPROVAL_STATUS ( 'not_yet_approved' ) ;
#65 = CARTESIAN_POINT ( 'NONE',  ( 0.000000000000000000, 0.000000000000000000, 0.000000000000000000 ) ) ;
#66 = DATE_AND_TIME ( #333, #284 ) ;
#67 = CARTESIAN_POINT ( 'NONE',  ( -11.30000000000000071, 0.000000000000000000, 0.000000000000000000 ) ) ;
#68 = CIRCLE ( 'NONE', #267, 12.50000000000000000 ) ;
#69 = FACE_OUTER_BOUND ( 'NONE', #94, .T. ) ;
#70 = CARTESIAN_POINT ( 'NONE',  ( -12.89999999999999503, -22.50000000000000000, 0.000000000000000000 ) ) ;
#71 = FACE_OUTER_BOUND ( 'NONE', #28, .T. ) ;
#72 = VERTEX_POINT ( 'NONE', #224 ) ;
#73 = CARTESIAN_POINT ( 'NONE',  ( -10.00000000000000000, 0.000000000000000000, 0.000000000000000000 ) ) ;
#74 = EDGE_LOOP ( 'NONE', ( #39 ) ) ;
#75 = APPROVAL ( #98, 'UNSPECIFIED' ) ;
#76 = DIRECTION ( 'NONE',  ( -1.000000000000000000, -0.000000000000000000, -0.000000000000000000 ) ) ;
#77 = DIRECTION ( 'NONE',  ( -1.000000000000000000, 0.000000000000000000, -0.000000000000000000 ) ) ;
#78 = EDGE_LOOP ( 'NONE', ( #245 ) ) ;
#79 = CARTESIAN_POINT ( 'NONE',  ( -11.30000000000000071, 0.000000000000000000, 0.000000000000000000 ) ) ;
#80 = AXIS2_PLACEMENT_3D ( 'NONE', #20, #116, #83 ) ;
#81 = VERTEX_POINT ( 'NONE', #264 ) ;
#82 = CARTESIAN_POINT ( 'NONE',  ( -12.90000000000000036, 12.50000000000000000, 0.000000000000000000 ) ) ;
#83 = DIRECTION ( 'NONE',  ( -1.387778780781445676E-16, 1.000000000000000000, 0.000000000000000000 ) ) ;
#84 = CARTESIAN_POINT ( 'NONE',  ( -11.30000000000000071, 0.000000000000000000, -36.00000000000000000 ) ) ;
#85 = CIRCLE ( 'NONE', #61, 35.39999999999999147 ) ;
#86 = DIRECTION ( 'NONE',  ( 1.541976423090495140E-16, -1.000000000000000000, 0.000000000000000000 ) ) ;
#87 = ADVANCED_FACE ( 'NONE', ( #240, #324 ), #158, .T. ) ;
#88 = FACE_OUTER_BOUND ( 'NONE', #230, .T. ) ;
#89 = EDGE_LOOP ( 'NONE', ( #276 ) ) ;
#90 = FACE_OUTER_BOUND ( 'NONE', #18, .T. ) ;
#91 = ADVANCED_FACE ( 'NONE', ( #1, #90 ), #213, .T. ) ;
#92 = AXIS2_PLACEMENT_3D ( 'NONE', #266, #345, #86 ) ;
#93 = EDGE_LOOP ( 'NONE', ( #126 ) ) ;
#94 = EDGE_LOOP ( 'NONE', ( #150 ) ) ;
#95 = PERSON_AND_ORGANIZATION ( #235, #36 ) ;
#96 = VERTEX_POINT ( 'NONE', #58 ) ;
#97 = DIRECTION ( 'NONE',  ( 1.387778780781445676E-16, -1.000000000000000000, 0.000000000000000000 ) ) ;
#98 = APPROVAL_STATUS ( 'not_yet_approved' ) ;
#99 = ADVANCED_FACE ( 'NONE', ( #69, #100 ), #307, .F. ) ;
#100 = FACE_BOUND ( 'NONE', #269, .T. ) ;
#101 = TOROIDAL_SURFACE ( 'NONE', #335, 13.10000000000000142, 0.5999999999999999778 ) ;
#102 = DIRECTION ( 'NONE',  ( -1.000000000000000000, -1.836970198721029934E-16, -0.000000000000000000 ) ) ;
#103 = APPROVAL_STATUS ( 'not_yet_approved' ) ;
#104 = DIRECTION ( 'NONE',  ( 1.541976423090495140E-16, -1.000000000000000000, 0.000000000000000000 ) ) ;
#105 = PERSON_AND_ORGANIZATION ( #235, #36 ) ;
#106 = CARTESIAN_POINT ( 'NONE',  ( 11.90000000000000036, 22.50000000000000355, 0.000000000000000000 ) ) ;
#107 = APPROVAL ( #103, 'UNSPECIFIED' ) ;
#108 = DIRECTION ( 'NONE',  ( 0.000000000000000000, 0.000000000000000000, 1.000000000000000000 ) ) ;
#109 = AXIS2_PLACEMENT_3D ( 'NONE', #79, #285, #309 ) ;
#110 = LOCAL_TIME ( 16, 51, 11.00000000000000000, #212 ) ;
#111 = EDGE_LOOP ( 'NONE', ( #166 ) ) ;
#112 = PLANE ( 'NONE',  #214 ) ;
#113 = ORIENTED_EDGE ( 'NONE', *, *, #157, .T. ) ;
#114 = DIRECTION ( 'NONE',  ( 1.387778780781445676E-16, -1.000000000000000000, 0.000000000000000000 ) ) ;
#115 = AXIS2_PLACEMENT_3D ( 'NONE', #189, #242, #296 ) ;
#116 = DIRECTION ( 'NONE',  ( -1.000000000000000000, -1.836970198721029934E-16, -0.000000000000000000 ) ) ;
#117 = MANIFOLD_SOLID_BREP ( 'Fillet1', #169 ) ;
#118 = DIRECTION ( 'NONE',  ( -1.000000000000000000, -0.000000000000000000, -0.000000000000000000 ) ) ;
#119 = APPROVAL_DATE_TIME ( #222, #75 ) ;
#120 = AXIS2_PLACEMENT_3D ( 'NONE', #297, #37, #135 ) ;
#121 = AXIS2_PLACEMENT_3D ( 'NONE', #15, #44, #275 ) ;
#122 = FACE_BOUND ( 'NONE', #154, .T. ) ;
#123 = PERSON_AND_ORGANIZATION_ROLE ( 'creator' ) ;
#124 = CARTESIAN_POINT ( 'NONE',  ( -11.90000000000000036, 1.836970198721031413E-16, 0.000000000000000000 ) ) ;
#125 = PERSON_AND_ORGANIZATION ( #235, #36 ) ;
#126 = ORIENTED_EDGE ( 'NONE', *, *, #27, .F. ) ;
#127 = DATE_TIME_ROLE ( 'classification_date' ) ;
#128 = TOROIDAL_SURFACE ( 'NONE', #329, 35.39999999999999147, 0.5999999999999999778 ) ;
#129 = AXIS2_PLACEMENT_3D ( 'NONE', #250, #219, #108 ) ;
#130 = ORIENTED_EDGE ( 'NONE', *, *, #132, .T. ) ;
#131 = PERSON_AND_ORGANIZATION_ROLE ( 'design_supplier' ) ;
#132 = EDGE_CURVE ( 'NONE', #16, #16, #148, .T. ) ;
#133 = DIRECTION ( 'NONE',  ( 0.000000000000000000, 0.000000000000000000, 1.000000000000000000 ) ) ;
#134 = CALENDAR_DATE ( 2021, 23, 8 ) ;
#135 = DIRECTION ( 'NONE',  ( 0.000000000000000000, 0.000000000000000000, 1.000000000000000000 ) ) ;
#136 = PERSON_AND_ORGANIZATION ( #235, #36 ) ;
#137 = FACE_OUTER_BOUND ( 'NONE', #311, .T. ) ;
#138 = MECHANICAL_CONTEXT ( 'NONE', #336, 'mechanical' ) ;
#139 = PERSON_AND_ORGANIZATION ( #235, #36 ) ;
#140 = PRODUCT_RELATED_PRODUCT_CATEGORY ( 'detail', '', ( #256 ) ) ;
#141 = ADVANCED_FACE ( 'NONE', ( #357, #332 ), #193, .F. ) ;
#142 = DIRECTION ( 'NONE',  ( 0.000000000000000000, 0.000000000000000000, -1.000000000000000000 ) ) ;
#143 = ORIENTED_EDGE ( 'NONE', *, *, #54, .T. ) ;
#144 = APPROVAL_PERSON_ORGANIZATION ( #105, #107, #198 ) ;
#145 = FACE_OUTER_BOUND ( 'NONE', #186, .T. ) ;
#146 = VERTEX_POINT ( 'NONE', #55 ) ;
#147 = EDGE_LOOP ( 'NONE', ( #321 ) ) ;
#148 = CIRCLE ( 'NONE', #34, 13.10000000000000142 ) ;
#149 = EDGE_LOOP ( 'NONE', ( #346 ) ) ;
#150 = ORIENTED_EDGE ( 'NONE', *, *, #27, .T. ) ;
#151 = CALENDAR_DATE ( 2021, 23, 8 ) ;
#152 = AXIS2_PLACEMENT_3D ( 'NONE', #209, #21, #233 ) ;
#153 = DATE_AND_TIME ( #151, #110 ) ;
#154 = EDGE_LOOP ( 'NONE', ( #130 ) ) ;
#155 = EDGE_LOOP ( 'NONE', ( #113 ) ) ;
#156 = CC_DESIGN_DATE_AND_TIME_ASSIGNMENT ( #153, #127, ( #272 ) ) ;
#157 = EDGE_CURVE ( 'NONE', #304, #304, #323, .T. ) ;
#158 = TOROIDAL_SURFACE ( 'NONE', #115, 13.10000000000000142, 0.5999999999999999778 ) ;
#159 = AXIS2_PLACEMENT_3D ( 'NONE', #124, #3, #293 ) ;
#160 = CC_DESIGN_SECURITY_CLASSIFICATION ( #272, ( #175 ) ) ;
#161 = DIRECTION ( 'NONE',  ( 1.000000000000000000, 0.000000000000000000, 0.000000000000000000 ) ) ;
#162 = APPROVAL_DATE_TIME ( #66, #107 ) ;
#163 = APPLICATION_CONTEXT ( 'configuration controlled 3d designs of mechanical parts and assemblies' ) ;
#164 = DIRECTION ( 'NONE',  ( 0.000000000000000000, 0.000000000000000000, 1.000000000000000000 ) ) ;
#165 = UNCERTAINTY_MEASURE_WITH_UNIT (LENGTH_MEASURE( 1.000000000000000082E-05 ), #261, 'distance_accuracy_value', 'NONE');
#166 = ORIENTED_EDGE ( 'NONE', *, *, #23, .F. ) ;
#167 = CARTESIAN_POINT ( 'NONE',  ( 12.29999999999999893, 4.629164900776995227E-15, 0.000000000000000000 ) ) ;
#168 = CARTESIAN_POINT ( 'NONE',  ( -10.00000000000000000, 0.000000000000000000, 36.00000000000000000 ) ) ;
#169 = CLOSED_SHELL ( 'NONE', ( #292, #270, #299, #45, #351, #141, #308, #99, #365, #91, #326, #289, #238, #87 ) ) ;
#170 = DIRECTION ( 'NONE',  ( 1.836970198721029934E-16, -1.000000000000000000, 0.000000000000000000 ) ) ;
#171 = TOROIDAL_SURFACE ( 'NONE', #152, 35.39999999999999147, 0.5999999999999999778 ) ;
#172 = FACE_OUTER_BOUND ( 'NONE', #93, .T. ) ;
#173 = EDGE_CURVE ( 'NONE', #146, #146, #68, .T. ) ;
#174 = AXIS2_PLACEMENT_3D ( 'NONE', #65, #274, #133 ) ;
#175 = PRODUCT_DEFINITION_FORMATION_WITH_SPECIFIED_SOURCE ( 'ANY', '', #256, .NOT_KNOWN. ) ;
#176 = FACE_OUTER_BOUND ( 'NONE', #265, .T. ) ;
#177 = ORIENTED_EDGE ( 'NONE', *, *, #244, .T. ) ;
#178 = ORIENTED_EDGE ( 'NONE', *, *, #315, .F. ) ;
#179 = CC_DESIGN_PERSON_AND_ORGANIZATION_ASSIGNMENT ( #139, #358, ( #256 ) ) ;
#180 = DIRECTION ( 'NONE',  ( -1.000000000000000000, -1.836970198721029934E-16, -0.000000000000000000 ) ) ;
#181 =( GEOMETRIC_REPRESENTATION_CONTEXT ( 3 ) GLOBAL_UNCERTAINTY_ASSIGNED_CONTEXT ( ( #165 ) ) GLOBAL_UNIT_ASSIGNED_CONTEXT ( ( #261, #202, #231 ) ) REPRESENTATION_CONTEXT ( 'NONE', 'WORKASPACE' ) );
#182 = AXIS2_PLACEMENT_3D ( 'NONE', #368, #216, #30 ) ;
#183 = EDGE_LOOP ( 'NONE', ( #185 ) ) ;
#184 = VERTEX_POINT ( 'NONE', #367 ) ;
#185 = ORIENTED_EDGE ( 'NONE', *, *, #315, .T. ) ;
#186 = EDGE_LOOP ( 'NONE', ( #52 ) ) ;
#187 = CIRCLE ( 'NONE', #109, 36.00000000000000000 ) ;
#188 = ORIENTED_EDGE ( 'NONE', *, *, #362, .T. ) ;
#189 = CARTESIAN_POINT ( 'NONE',  ( -12.29999999999999893, 1.102182119232624937E-16, 0.000000000000000000 ) ) ;
#190 = SHAPE_DEFINITION_REPRESENTATION ( #223, #19 ) ;
#191 = DIRECTION ( 'NONE',  ( -1.000000000000000000, -1.836970198721029934E-16, -0.000000000000000000 ) ) ;
#192 = CC_DESIGN_PERSON_AND_ORGANIZATION_ASSIGNMENT ( #298, #318, ( #272 ) ) ;
#193 = TOROIDAL_SURFACE ( 'NONE', #174, 43.50000000000000000, 12.50000000000000000 ) ;
#194 = APPROVAL_PERSON_ORGANIZATION ( #125, #62, #343 ) ;
#195 = CARTESIAN_POINT ( 'NONE',  ( -11.90000000000000036, 22.50000000000000355, 0.000000000000000000 ) ) ;
#196 = COORDINATED_UNIVERSAL_TIME_OFFSET ( 1, 0, .AHEAD. ) ;
#197 = FACE_OUTER_BOUND ( 'NONE', #78, .T. ) ;
#198 = APPROVAL_ROLE ( '' ) ;
#199 = CARTESIAN_POINT ( 'NONE',  ( 12.90000000000000036, -13.09999999999999609, 0.000000000000000000 ) ) ;
#200 = DIRECTION ( 'NONE',  ( -1.000000000000000000, -1.836970198721029934E-16, -0.000000000000000000 ) ) ;
#201 = DIRECTION ( 'NONE',  ( -1.000000000000000000, -0.000000000000000000, -0.000000000000000000 ) ) ;
#202 =( NAMED_UNIT ( * ) PLANE_ANGLE_UNIT ( ) SI_UNIT ( $, .RADIAN. ) );
#203 = ORIENTED_EDGE ( 'NONE', *, *, #206, .T. ) ;
#204 = CIRCLE ( 'NONE', #80, 12.50000000000000000 ) ;
#205 = FACE_OUTER_BOUND ( 'NONE', #339, .T. ) ;
#206 = EDGE_CURVE ( 'NONE', #81, #81, #59, .T. ) ;
#207 = CYLINDRICAL_SURFACE ( 'NONE', #363, 12.50000000000000000 ) ;
#208 = CIRCLE ( 'NONE', #92, 22.50000000000000000 ) ;
#209 = CARTESIAN_POINT ( 'NONE',  ( 11.30000000000000071, 0.000000000000000000, 0.000000000000000000 ) ) ;
#210 = EDGE_LOOP ( 'NONE', ( #360 ) ) ;
#211 = EDGE_LOOP ( 'NONE', ( #178 ) ) ;
#212 = COORDINATED_UNIVERSAL_TIME_OFFSET ( 1, 0, .AHEAD. ) ;
#213 = CYLINDRICAL_SURFACE ( 'NONE', #313, 36.00000000000000000 ) ;
#214 = AXIS2_PLACEMENT_3D ( 'NONE', #106, #77, #310 ) ;
#215 = FACE_OUTER_BOUND ( 'NONE', #149, .T. ) ;
#216 = DIRECTION ( 'NONE',  ( 1.000000000000000000, 1.836970198721029934E-16, 0.000000000000000000 ) ) ;
#217 = CC_DESIGN_DATE_AND_TIME_ASSIGNMENT ( #9, #251, ( #32 ) ) ;
#218 = APPROVAL_DATE_TIME ( #322, #62 ) ;
#219 = DIRECTION ( 'NONE',  ( -1.000000000000000000, -0.000000000000000000, -0.000000000000000000 ) ) ;
#220 = PERSON_AND_ORGANIZATION_ROLE ( 'creator' ) ;
#221 = FACE_OUTER_BOUND ( 'NONE', #210, .T. ) ;
#222 = DATE_AND_TIME ( #38, #6 ) ;
#223 = PRODUCT_DEFINITION_SHAPE ( 'NONE', 'NONE',  #32 ) ;
#224 = CARTESIAN_POINT ( 'NONE',  ( -12.90000000000000036, 13.10000000000000142, 0.000000000000000000 ) ) ;
#225 = DIRECTION ( 'NONE',  ( 1.541976423090495140E-16, -1.000000000000000000, 0.000000000000000000 ) ) ;
#226 = COORDINATED_UNIVERSAL_TIME_OFFSET ( 1, 0, .AHEAD. ) ;
#227 = CARTESIAN_POINT ( 'NONE',  ( 11.90000000000000036, 0.000000000000000000, 0.000000000000000000 ) ) ;
#228 = CIRCLE ( 'NONE', #120, 36.00000000000000000 ) ;
#229 = APPROVAL_PERSON_ORGANIZATION ( #350, #75, #328 ) ;
#230 = EDGE_LOOP ( 'NONE', ( #203 ) ) ;
#231 =( NAMED_UNIT ( * ) SI_UNIT ( $, .STERADIAN. ) SOLID_ANGLE_UNIT ( ) );
#232 = CARTESIAN_POINT ( 'NONE',  ( 11.90000000000000036, 4.555686092828155084E-15, 0.000000000000000000 ) ) ;
#233 = DIRECTION ( 'NONE',  ( 0.000000000000000000, 0.000000000000000000, 1.000000000000000000 ) ) ;
#234 = CARTESIAN_POINT ( 'NONE',  ( 11.30000000000000071, 0.000000000000000000, 36.00000000000000000 ) ) ;
#235 = PERSON ( 'UNSPECIFIED', 'UNSPECIFIED', 'UNSPECIFIED', ('UNSPECIFIED'), ('UNSPECIFIED'), ('UNSPECIFIED') ) ;
#236 = VERTEX_POINT ( 'NONE', #348 ) ;
#237 = CARTESIAN_POINT ( 'NONE',  ( 12.89999999999999503, 22.50000000000000355, 0.000000000000000000 ) ) ;
#238 = ADVANCED_FACE ( 'NONE', ( #355, #172 ), #128, .T. ) ;
#239 = AXIS2_PLACEMENT_3D ( 'NONE', #73, #201, #257 ) ;
#240 = FACE_OUTER_BOUND ( 'NONE', #319, .T. ) ;
#241 = COORDINATED_UNIVERSAL_TIME_OFFSET ( 1, 0, .AHEAD. ) ;
#242 = DIRECTION ( 'NONE',  ( 1.000000000000000000, 1.836970198721029934E-16, 0.000000000000000000 ) ) ;
#243 = APPLICATION_PROTOCOL_DEFINITION ( 'international standard', 'config_control_design', 1994, #336 ) ;
#244 = EDGE_CURVE ( 'NONE', #184, #184, #279, .T. ) ;
#245 = ORIENTED_EDGE ( 'NONE', *, *, #54, .F. ) ;
#246 = AXIS2_PLACEMENT_3D ( 'NONE', #82, #286, #262 ) ;
#247 = EDGE_CURVE ( 'NONE', #49, #49, #283, .T. ) ;
#248 = DIRECTION ( 'NONE',  ( 0.000000000000000000, 0.000000000000000000, -1.000000000000000000 ) ) ;
#249 = SECURITY_CLASSIFICATION_LEVEL ( 'unclassified' ) ;
#250 = CARTESIAN_POINT ( 'NONE',  ( 9.999999999999998224, 0.000000000000000000, 0.000000000000000000 ) ) ;
#251 = DATE_TIME_ROLE ( 'creation_date' ) ;
#252 = DIRECTION ( 'NONE',  ( 1.000000000000000000, 0.000000000000000000, 0.000000000000000000 ) ) ;
#253 = VERTEX_POINT ( 'NONE', #306 ) ;
#254 = AXIS2_PLACEMENT_3D ( 'NONE', #227, #43, #17 ) ;
#255 = CYLINDRICAL_SURFACE ( 'NONE', #353, 22.50000000000000000 ) ;
#256 = PRODUCT ( 'LFR 5206-25-KDD', 'LFR 5206-25-KDD', '', ( #138 ) ) ;
#257 = DIRECTION ( 'NONE',  ( 0.000000000000000000, 0.000000000000000000, 1.000000000000000000 ) ) ;
#258 = CC_DESIGN_PERSON_AND_ORGANIZATION_ASSIGNMENT ( #369, #131, ( #175 ) ) ;
#259 = EDGE_LOOP ( 'NONE', ( #63 ) ) ;
#260 = CC_DESIGN_APPROVAL ( #62, ( #272 ) ) ;
#261 =( LENGTH_UNIT ( ) NAMED_UNIT ( * ) SI_UNIT ( .MILLI., .METRE. ) );
#262 = DIRECTION ( 'NONE',  ( -1.836970198721029934E-16, 1.000000000000000000, 0.000000000000000000 ) ) ;
#263 = DIRECTION ( 'NONE',  ( 0.000000000000000000, 0.000000000000000000, 1.000000000000000000 ) ) ;
#264 = CARTESIAN_POINT ( 'NONE',  ( 11.90000000000000036, 0.000000000000000000, 35.39999999999999147 ) ) ;
#265 = EDGE_LOOP ( 'NONE', ( #317 ) ) ;
#266 = CARTESIAN_POINT ( 'NONE',  ( -12.89999999999999858, 7.592533899725655098E-31, 0.000000000000000000 ) ) ;
#267 = AXIS2_PLACEMENT_3D ( 'NONE', #10, #303, #97 ) ;
#268 = PLANE ( 'NONE',  #288 ) ;
#269 = EDGE_LOOP ( 'NONE', ( #22 ) ) ;
#270 = ADVANCED_FACE ( 'NONE', ( #41, #137 ), #278, .T. ) ;
#271 = ORIENTED_EDGE ( 'NONE', *, *, #31, .F. ) ;
#272 = SECURITY_CLASSIFICATION ( '', '', #249 ) ;
#273 = CARTESIAN_POINT ( 'NONE',  ( 12.89999999999999858, 4.739383112700257807E-15, 0.000000000000000000 ) ) ;
#274 = DIRECTION ( 'NONE',  ( -1.000000000000000000, -0.000000000000000000, -0.000000000000000000 ) ) ;
#275 = DIRECTION ( 'NONE',  ( 1.000000000000000000, 0.000000000000000000, 0.000000000000000000 ) ) ;
#276 = ORIENTED_EDGE ( 'NONE', *, *, #173, .F. ) ;
#277 = VERTEX_POINT ( 'NONE', #11 ) ;
#278 = CYLINDRICAL_SURFACE ( 'NONE', #24, 22.50000000000000000 ) ;
#279 = CIRCLE ( 'NONE', #129, 36.00000000000000000 ) ;
#280 = FACE_OUTER_BOUND ( 'NONE', #111, .T. ) ;
#281 = CIRCLE ( 'NONE', #182, 13.10000000000000142 ) ;
#282 = EDGE_CURVE ( 'NONE', #364, #364, #228, .T. ) ;
#283 = CIRCLE ( 'NONE', #5, 22.50000000000000000 ) ;
#284 = LOCAL_TIME ( 16, 51, 11.00000000000000000, #226 ) ;
#285 = DIRECTION ( 'NONE',  ( 1.000000000000000000, 0.000000000000000000, 0.000000000000000000 ) ) ;
#286 = DIRECTION ( 'NONE',  ( 1.000000000000000000, 1.836970198721029934E-16, 0.000000000000000000 ) ) ;
#287 = CARTESIAN_POINT ( 'NONE',  ( 12.90000000000000213, -22.49999999999999645, 0.000000000000000000 ) ) ;
#288 = AXIS2_PLACEMENT_3D ( 'NONE', #237, #342, #295 ) ;
#289 = ADVANCED_FACE ( 'NONE', ( #352, #221 ), #101, .T. ) ;
#290 = VERTEX_POINT ( 'NONE', #84 ) ;
#291 = EDGE_LOOP ( 'NONE', ( #2 ) ) ;
#292 = ADVANCED_FACE ( 'NONE', ( #197, #280 ), #255, .T. ) ;
#293 = DIRECTION ( 'NONE',  ( 0.000000000000000000, 0.000000000000000000, -1.000000000000000000 ) ) ;
#294 = CARTESIAN_POINT ( 'NONE',  ( -11.90000000000000036, 0.000000000000000000, 0.000000000000000000 ) ) ;
#295 = DIRECTION ( 'NONE',  ( 1.836970198721029934E-16, -1.000000000000000000, 0.000000000000000000 ) ) ;
#296 = DIRECTION ( 'NONE',  ( -1.836970198721029934E-16, 1.000000000000000000, 0.000000000000000000 ) ) ;
#297 = CARTESIAN_POINT ( 'NONE',  ( 11.30000000000000071, 0.000000000000000000, 0.000000000000000000 ) ) ;
#298 = PERSON_AND_ORGANIZATION ( #235, #36 ) ;
#299 = ADVANCED_FACE ( 'NONE', ( #331, #71 ), #14, .F. ) ;
#300 = CARTESIAN_POINT ( 'NONE',  ( -12.89999999999999858, 0.000000000000000000, 0.000000000000000000 ) ) ;
#301 = COORDINATED_UNIVERSAL_TIME_OFFSET ( 1, 0, .AHEAD. ) ;
#302 = ORIENTED_EDGE ( 'NONE', *, *, #31, .T. ) ;
#303 = DIRECTION ( 'NONE',  ( 1.000000000000000000, 1.836970198721029934E-16, 0.000000000000000000 ) ) ;
#304 = VERTEX_POINT ( 'NONE', #168 ) ;
#305 = DIRECTION ( 'NONE',  ( 1.324216393875425095E-16, -1.000000000000000000, 0.000000000000000000 ) ) ;
#306 = CARTESIAN_POINT ( 'NONE',  ( -11.90000000000000036, 0.000000000000000000, -35.39999999999999147 ) ) ;
#307 = PLANE ( 'NONE',  #341 ) ;
#308 = ADVANCED_FACE ( 'NONE', ( #338, #361 ), #46, .T. ) ;
#309 = DIRECTION ( 'NONE',  ( 0.000000000000000000, 0.000000000000000000, -1.000000000000000000 ) ) ;
#310 = DIRECTION ( 'NONE',  ( -0.000000000000000000, 0.000000000000000000, 1.000000000000000000 ) ) ;
#311 = EDGE_LOOP ( 'NONE', ( #60 ) ) ;
#312 = EDGE_LOOP ( 'NONE', ( #188 ) ) ;
#313 = AXIS2_PLACEMENT_3D ( 'NONE', #300, #8, #164 ) ;
#314 = LOCAL_TIME ( 16, 51, 11.00000000000000000, #241 ) ;
#315 = EDGE_CURVE ( 'NONE', #290, #290, #187, .T. ) ;
#316 = CARTESIAN_POINT ( 'NONE',  ( -12.89999999999999858, 0.000000000000000000, 0.000000000000000000 ) ) ;
#317 = ORIENTED_EDGE ( 'NONE', *, *, #206, .F. ) ;
#318 = PERSON_AND_ORGANIZATION_ROLE ( 'classification_officer' ) ;
#319 = EDGE_LOOP ( 'NONE', ( #271 ) ) ;
#320 = CIRCLE ( 'NONE', #159, 22.50000000000000000 ) ;
#321 = ORIENTED_EDGE ( 'NONE', *, *, #247, .T. ) ;
#322 = DATE_AND_TIME ( #35, #314 ) ;
#323 = CIRCLE ( 'NONE', #239, 36.00000000000000000 ) ;
#324 = FACE_OUTER_BOUND ( 'NONE', #26, .T. ) ;
#325 = CARTESIAN_POINT ( 'NONE',  ( 12.89999999999999858, 4.739383112700257807E-15, 0.000000000000000000 ) ) ;
#326 = ADVANCED_FACE ( 'NONE', ( #176, #205 ), #171, .T. ) ;
#327 = DIRECTION ( 'NONE',  ( 1.541976423090495140E-16, -1.000000000000000000, 0.000000000000000000 ) ) ;
#328 = APPROVAL_ROLE ( '' ) ;
#329 = AXIS2_PLACEMENT_3D ( 'NONE', #67, #161, #142 ) ;
#330 = CC_DESIGN_APPROVAL ( #107, ( #32 ) ) ;
#331 = FACE_BOUND ( 'NONE', #56, .T. ) ;
#332 = FACE_OUTER_BOUND ( 'NONE', #57, .T. ) ;
#333 = CALENDAR_DATE ( 2021, 23, 8 ) ;
#334 = VERTEX_POINT ( 'NONE', #70 ) ;
#335 = AXIS2_PLACEMENT_3D ( 'NONE', #167, #12, #170 ) ;
#336 = APPLICATION_CONTEXT ( 'configuration controlled 3d designs of mechanical parts and assemblies' ) ;
#337 = FACE_BOUND ( 'NONE', #312, .T. ) ;
#338 = FACE_OUTER_BOUND ( 'NONE', #183, .T. ) ;
#339 = EDGE_LOOP ( 'NONE', ( #347 ) ) ;
#340 = CC_DESIGN_PERSON_AND_ORGANIZATION_ASSIGNMENT ( #136, #220, ( #32 ) ) ;
#341 = AXIS2_PLACEMENT_3D ( 'NONE', #195, #252, #33 ) ;
#342 = DIRECTION ( 'NONE',  ( -1.000000000000000000, -1.836970198721029934E-16, 0.000000000000000000 ) ) ;
#343 = APPROVAL_ROLE ( '' ) ;
#344 = EDGE_CURVE ( 'NONE', #236, #236, #204, .T. ) ;
#345 = DIRECTION ( 'NONE',  ( -1.000000000000000000, -1.836970198721029934E-16, -0.000000000000000000 ) ) ;
#346 = ORIENTED_EDGE ( 'NONE', *, *, #247, .F. ) ;
#347 = ORIENTED_EDGE ( 'NONE', *, *, #282, .F. ) ;
#348 = CARTESIAN_POINT ( 'NONE',  ( -12.30000000000000071, 12.50000000000000000, 0.000000000000000000 ) ) ;
#349 = DIRECTION ( 'NONE',  ( -1.000000000000000000, -1.836970198721029934E-16, -0.000000000000000000 ) ) ;
#350 = PERSON_AND_ORGANIZATION ( #235, #36 ) ;
#351 = ADVANCED_FACE ( 'NONE', ( #53, #145 ), #207, .F. ) ;
#352 = FACE_OUTER_BOUND ( 'NONE', #89, .T. ) ;
#353 = AXIS2_PLACEMENT_3D ( 'NONE', #354, #102, #104 ) ;
#354 = CARTESIAN_POINT ( 'NONE',  ( -12.90000000000000213, 0.000000000000000000, 0.000000000000000000 ) ) ;
#355 = FACE_OUTER_BOUND ( 'NONE', #211, .T. ) ;
#356 = APPLICATION_PROTOCOL_DEFINITION ( 'international standard', 'config_control_design', 1994, #163 ) ;
#357 = FACE_OUTER_BOUND ( 'NONE', #291, .T. ) ;
#358 = PERSON_AND_ORGANIZATION_ROLE ( 'design_owner' ) ;
#359 = LOCAL_TIME ( 16, 51, 11.00000000000000000, #196 ) ;
#360 = ORIENTED_EDGE ( 'NONE', *, *, #132, .F. ) ;
#361 = FACE_OUTER_BOUND ( 'NONE', #155, .T. ) ;
#362 = EDGE_CURVE ( 'NONE', #96, #96, #42, .T. ) ;
#363 = AXIS2_PLACEMENT_3D ( 'NONE', #48, #180, #114 ) ;
#364 = VERTEX_POINT ( 'NONE', #234 ) ;
#365 = ADVANCED_FACE ( 'NONE', ( #88, #337 ), #112, .F. ) ;
#366 = ORIENTED_EDGE ( 'NONE', *, *, #344, .F. ) ;
#367 = CARTESIAN_POINT ( 'NONE',  ( 9.999999999999998224, 0.000000000000000000, 36.00000000000000000 ) ) ;
#368 = CARTESIAN_POINT ( 'NONE',  ( -12.89999999999999858, 8.425943506694156857E-31, 0.000000000000000000 ) ) ;
#369 = PERSON_AND_ORGANIZATION ( #235, #36 ) ;
ENDSEC;
END-ISO-10303-21;
