ISO-10303-21;
HEADER;
FILE_DESCRIPTION (( 'STEP AP203' ),
    '1' );
FILE_NAME ('LFR 5204-16KDD.step',
    '2021-08-23T14:51:10',
    ( '' ),
    ( '' ),
    'SwSTEP 2.0',
    'SolidWorks 2020',
    '' );
FILE_SCHEMA (( 'CONFIG_CONTROL_DESIGN' ));
ENDSEC;

DATA;
#1 = DIRECTION ( 'NONE',  ( 1.000000000000000000, 0.000000000000000000, 0.000000000000000000 ) ) ;
#2 = FACE_BOUND ( 'NONE', #172, .T. ) ;
#3 = UNCERTAINTY_MEASURE_WITH_UNIT (LENGTH_MEASURE( 1.000000000000000082E-05 ), #229, 'distance_accuracy_value', 'NONE');
#4 = DIRECTION ( 'NONE',  ( -1.000000000000000000, -1.836970198721029688E-16, 0.000000000000000000 ) ) ;
#5 = AXIS2_PLACEMENT_3D ( 'NONE', #367, #40, #98 ) ;
#6 = CARTESIAN_POINT ( 'NONE',  ( 11.29999999999999893, 4.151552649109527202E-15, 0.000000000000000000 ) ) ;
#7 = CARTESIAN_POINT ( 'NONE',  ( 10.69999999999999929, 4.041334437186266200E-15, 0.000000000000000000 ) ) ;
#8 = VERTEX_POINT ( 'NONE', #228 ) ;
#9 = ADVANCED_FACE ( 'NONE', ( #278, #218 ), #255, .F. ) ;
#10 = AXIS2_PLACEMENT_3D ( 'NONE', #6, #115, #230 ) ;
#11 = FACE_OUTER_BOUND ( 'NONE', #186, .T. ) ;
#12 = SECURITY_CLASSIFICATION_LEVEL ( 'unclassified' ) ;
#13 = PERSON_AND_ORGANIZATION_ROLE ( 'classification_officer' ) ;
#14 = ORIENTED_EDGE ( 'NONE', *, *, #237, .F. ) ;
#15 = DIRECTION ( 'NONE',  ( -1.000000000000000000, -0.000000000000000000, -0.000000000000000000 ) ) ;
#16 = APPLICATION_PROTOCOL_DEFINITION ( 'international standard', 'config_control_design', 1994, #249 ) ;
#17 = DATE_TIME_ROLE ( 'classification_date' ) ;
#18 = EDGE_LOOP ( 'NONE', ( #141 ) ) ;
#19 = DIRECTION ( 'NONE',  ( 0.000000000000000000, 0.000000000000000000, -1.000000000000000000 ) ) ;
#20 = COORDINATED_UNIVERSAL_TIME_OFFSET ( 1, 0, .AHEAD. ) ;
#21 = CIRCLE ( 'NONE', #226, 10.59999999999999964 ) ;
#22 = FACE_OUTER_BOUND ( 'NONE', #95, .T. ) ;
#23 = FACE_OUTER_BOUND ( 'NONE', #75, .T. ) ;
#24 = FACE_OUTER_BOUND ( 'NONE', #18, .T. ) ;
#25 = EDGE_LOOP ( 'NONE', ( #100 ) ) ;
#26 = DIRECTION ( 'NONE',  ( 0.000000000000000000, 0.000000000000000000, 1.000000000000000000 ) ) ;
#27 = DIRECTION ( 'NONE',  ( -0.000000000000000000, 0.000000000000000000, 1.000000000000000000 ) ) ;
#28 = DIRECTION ( 'NONE',  ( 1.000000000000000000, 0.000000000000000000, 0.000000000000000000 ) ) ;
#29 = ORIENTED_EDGE ( 'NONE', *, *, #263, .F. ) ;
#30 = DIRECTION ( 'NONE',  ( 1.836970198721029688E-16, -1.000000000000000000, 0.000000000000000000 ) ) ;
#31 = FACE_OUTER_BOUND ( 'NONE', #82, .T. ) ;
#32 = VERTEX_POINT ( 'NONE', #147 ) ;
#33 = AXIS2_PLACEMENT_3D ( 'NONE', #149, #321, #202 ) ;
#34 = CARTESIAN_POINT ( 'NONE',  ( -11.30000000000000071, 3.611118645726067224E-31, 0.000000000000000000 ) ) ;
#35 = EDGE_CURVE ( 'NONE', #140, #140, #81, .T. ) ;
#36 = CARTESIAN_POINT ( 'NONE',  ( -11.30000000000000249, 0.000000000000000000, 0.000000000000000000 ) ) ;
#37 = FACE_OUTER_BOUND ( 'NONE', #285, .T. ) ;
#38 = ADVANCED_FACE ( 'NONE', ( #47, #24 ), #136, .F. ) ;
#39 = ORIENTED_EDGE ( 'NONE', *, *, #216, .F. ) ;
#40 = DIRECTION ( 'NONE',  ( -1.000000000000000000, -0.000000000000000000, -0.000000000000000000 ) ) ;
#41 = ORIENTED_EDGE ( 'NONE', *, *, #340, .F. ) ;
#42 = PERSON_AND_ORGANIZATION ( #212, #57 ) ;
#43 = DIRECTION ( 'NONE',  ( 0.000000000000000000, 0.000000000000000000, 1.000000000000000000 ) ) ;
#44 = DIRECTION ( 'NONE',  ( -1.836970198721029688E-16, 1.000000000000000000, 0.000000000000000000 ) ) ;
#45 = CIRCLE ( 'NONE', #206, 18.00000000000000355 ) ;
#46 = FACE_OUTER_BOUND ( 'NONE', #211, .T. ) ;
#47 = FACE_BOUND ( 'NONE', #250, .T. ) ;
#48 = CARTESIAN_POINT ( 'NONE',  ( 9.699999999999999289, 0.000000000000000000, 0.000000000000000000 ) ) ;
#49 = AXIS2_PLACEMENT_3D ( 'NONE', #189, #193, #162 ) ;
#50 = ADVANCED_FACE ( 'NONE', ( #22, #169 ), #109, .T. ) ;
#51 = ORIENTED_EDGE ( 'NONE', *, *, #301, .F. ) ;
#52 = DIRECTION ( 'NONE',  ( -1.000000000000000000, -0.000000000000000000, -0.000000000000000000 ) ) ;
#53 = FACE_OUTER_BOUND ( 'NONE', #248, .T. ) ;
#54 = CARTESIAN_POINT ( 'NONE',  ( -9.700000000000001066, 0.000000000000000000, -25.99999999999999645 ) ) ;
#55 = VERTEX_POINT ( 'NONE', #181 ) ;
#56 = CARTESIAN_POINT ( 'NONE',  ( -9.700000000000001066, 0.000000000000000000, 0.000000000000000000 ) ) ;
#57 = ORGANIZATION ( 'UNSPECIFIED', 'UNSPECIFIED', '' ) ;
#58 = CIRCLE ( 'NONE', #269, 18.00000000000000355 ) ;
#59 = VERTEX_POINT ( 'NONE', #159 ) ;
#60 = DIRECTION ( 'NONE',  ( 1.836970198721029688E-16, -1.000000000000000000, 0.000000000000000000 ) ) ;
#61 = APPLICATION_CONTEXT ( 'configuration controlled 3d designs of mechanical parts and assemblies' ) ;
#62 = FACE_OUTER_BOUND ( 'NONE', #163, .T. ) ;
#63 = FACE_OUTER_BOUND ( 'NONE', #352, .T. ) ;
#64 = CC_DESIGN_DATE_AND_TIME_ASSIGNMENT ( #325, #17, ( #268 ) ) ;
#65 = PERSON_AND_ORGANIZATION ( #212, #57 ) ;
#66 = TOROIDAL_SURFACE ( 'NONE', #188, 25.39999999999999503, 0.5999999999999999778 ) ;
#67 = ORIENTED_EDGE ( 'NONE', *, *, #290, .T. ) ;
#68 = PRODUCT ( 'LFR 5204-16KDD', 'LFR 5204-16KDD', '', ( #89 ) ) ;
#69 = CARTESIAN_POINT ( 'NONE',  ( 10.30000000000000071, 0.000000000000000000, 25.39999999999999503 ) ) ;
#70 = ADVANCED_BREP_SHAPE_REPRESENTATION ( 'LFR 5204-16KDD', ( #351, #326 ), #328 ) ;
#71 = EDGE_LOOP ( 'NONE', ( #110 ) ) ;
#72 = FACE_OUTER_BOUND ( 'NONE', #358, .T. ) ;
#73 = APPROVAL_DATE_TIME ( #213, #175 ) ;
#74 = CC_DESIGN_PERSON_AND_ORGANIZATION_ASSIGNMENT ( #333, #210, ( #354 ) ) ;
#75 = EDGE_LOOP ( 'NONE', ( #300 ) ) ;
#76 = DIRECTION ( 'NONE',  ( -1.000000000000000000, -1.836970198721029688E-16, -0.000000000000000000 ) ) ;
#77 = CALENDAR_DATE ( 2021, 23, 8 ) ;
#78 = DIRECTION ( 'NONE',  ( -1.000000000000000000, -0.000000000000000000, -0.000000000000000000 ) ) ;
#79 = EDGE_LOOP ( 'NONE', ( #84 ) ) ;
#80 = DATE_TIME_ROLE ( 'creation_date' ) ;
#81 = CIRCLE ( 'NONE', #355, 18.00000000000000355 ) ;
#82 = EDGE_LOOP ( 'NONE', ( #224 ) ) ;
#83 = AXIS2_PLACEMENT_3D ( 'NONE', #233, #203, #288 ) ;
#84 = ORIENTED_EDGE ( 'NONE', *, *, #307, .T. ) ;
#85 = CARTESIAN_POINT ( 'NONE',  ( -10.70000000000000107, 1.102182119232620376E-16, 0.000000000000000000 ) ) ;
#86 = DIRECTION ( 'NONE',  ( 1.927470528863118556E-16, -1.000000000000000000, 0.000000000000000000 ) ) ;
#87 = TOROIDAL_SURFACE ( 'NONE', #349, 10.59999999999999964, 0.5999999999999999778 ) ;
#88 = AXIS2_PLACEMENT_3D ( 'NONE', #112, #4, #30 ) ;
#89 = MECHANICAL_CONTEXT ( 'NONE', #61, 'mechanical' ) ;
#90 = CARTESIAN_POINT ( 'NONE',  ( 10.69999999999999929, 4.041334437186266200E-15, 0.000000000000000000 ) ) ;
#91 = CARTESIAN_POINT ( 'NONE',  ( 9.699999999999999289, 0.000000000000000000, 0.000000000000000000 ) ) ;
#92 = CIRCLE ( 'NONE', #245, 25.99999999999999645 ) ;
#93 = DIRECTION ( 'NONE',  ( 1.000000000000000000, 0.000000000000000000, 0.000000000000000000 ) ) ;
#94 = LOCAL_TIME ( 16, 51, 10.00000000000000000, #125 ) ;
#95 = EDGE_LOOP ( 'NONE', ( #313 ) ) ;
#96 = APPROVAL_ROLE ( '' ) ;
#97 = ADVANCED_FACE ( 'NONE', ( #289, #148 ), #294, .F. ) ;
#98 = DIRECTION ( 'NONE',  ( 0.000000000000000000, 0.000000000000000000, 1.000000000000000000 ) ) ;
#99 = APPROVAL_ROLE ( '' ) ;
#100 = ORIENTED_EDGE ( 'NONE', *, *, #322, .F. ) ;
#101 = APPROVAL_STATUS ( 'not_yet_approved' ) ;
#102 = DATE_AND_TIME ( #244, #309 ) ;
#103 = ADVANCED_FACE ( 'NONE', ( #176, #63 ), #220, .T. ) ;
#104 = FACE_OUTER_BOUND ( 'NONE', #122, .T. ) ;
#105 = PERSON_AND_ORGANIZATION_ROLE ( 'creator' ) ;
#106 = ADVANCED_FACE ( 'NONE', ( #348, #155 ), #87, .T. ) ;
#107 = EDGE_LOOP ( 'NONE', ( #197 ) ) ;
#108 = DIRECTION ( 'NONE',  ( 1.636531581110195409E-16, -1.000000000000000000, 0.000000000000000000 ) ) ;
#109 = CYLINDRICAL_SURFACE ( 'NONE', #153, 18.00000000000000355 ) ;
#110 = ORIENTED_EDGE ( 'NONE', *, *, #363, .T. ) ;
#111 = ORIENTED_EDGE ( 'NONE', *, *, #290, .F. ) ;
#112 = CARTESIAN_POINT ( 'NONE',  ( 11.29999999999999716, 18.00000000000000711, 0.000000000000000000 ) ) ;
#113 = DIRECTION ( 'NONE',  ( 0.000000000000000000, 0.000000000000000000, -1.000000000000000000 ) ) ;
#114 = AXIS2_PLACEMENT_3D ( 'NONE', #271, #28, #26 ) ;
#115 = DIRECTION ( 'NONE',  ( -1.000000000000000000, -1.836970198721029688E-16, -0.000000000000000000 ) ) ;
#116 =( NAMED_UNIT ( * ) SI_UNIT ( $, .STERADIAN. ) SOLID_ANGLE_UNIT ( ) );
#117 = DIRECTION ( 'NONE',  ( 1.000000000000000000, 0.000000000000000000, 0.000000000000000000 ) ) ;
#118 = CYLINDRICAL_SURFACE ( 'NONE', #33, 10.00000000000000000 ) ;
#119 = ADVANCED_FACE ( 'NONE', ( #256, #11 ), #118, .F. ) ;
#120 = DIRECTION ( 'NONE',  ( 0.000000000000000000, 0.000000000000000000, 1.000000000000000000 ) ) ;
#121 = ORIENTED_EDGE ( 'NONE', *, *, #322, .T. ) ;
#122 = EDGE_LOOP ( 'NONE', ( #282 ) ) ;
#123 = CYLINDRICAL_SURFACE ( 'NONE', #49, 25.99999999999999645 ) ;
#124 = DIRECTION ( 'NONE',  ( 0.000000000000000000, 0.000000000000000000, 1.000000000000000000 ) ) ;
#125 = COORDINATED_UNIVERSAL_TIME_OFFSET ( 1, 0, .AHEAD. ) ;
#126 = DATE_AND_TIME ( #160, #284 ) ;
#127 = DIRECTION ( 'NONE',  ( 1.927470528863118556E-16, -1.000000000000000000, 0.000000000000000000 ) ) ;
#128 = LOCAL_TIME ( 16, 51, 10.00000000000000000, #214 ) ;
#129 = AXIS2_PLACEMENT_3D ( 'NONE', #56, #178, #291 ) ;
#130 = CARTESIAN_POINT ( 'NONE',  ( -10.30000000000000071, 0.000000000000000000, 0.000000000000000000 ) ) ;
#131 = CARTESIAN_POINT ( 'NONE',  ( 10.30000000000000071, 18.00000000000000711, 0.000000000000000000 ) ) ;
#132 = FACE_OUTER_BOUND ( 'NONE', #302, .T. ) ;
#133 = CARTESIAN_POINT ( 'NONE',  ( -11.30000000000000249, 10.00000000000000000, 0.000000000000000000 ) ) ;
#134 = DIRECTION ( 'NONE',  ( -1.000000000000000000, -0.000000000000000000, -0.000000000000000000 ) ) ;
#135 = FACE_OUTER_BOUND ( 'NONE', #236, .T. ) ;
#136 = PLANE ( 'NONE',  #264 ) ;
#137 = EDGE_CURVE ( 'NONE', #260, #260, #292, .T. ) ;
#138 = EDGE_LOOP ( 'NONE', ( #39 ) ) ;
#139 = CARTESIAN_POINT ( 'NONE',  ( -11.29999999999999893, 6.074027119780523202E-31, 0.000000000000000000 ) ) ;
#140 = VERTEX_POINT ( 'NONE', #225 ) ;
#141 = ORIENTED_EDGE ( 'NONE', *, *, #340, .T. ) ;
#142 = CARTESIAN_POINT ( 'NONE',  ( 11.30000000000000249, -18.00000000000000000, 0.000000000000000000 ) ) ;
#143 = EDGE_CURVE ( 'NONE', #8, #8, #240, .T. ) ;
#144 = CC_DESIGN_APPROVAL ( #175, ( #354 ) ) ;
#145 = CARTESIAN_POINT ( 'NONE',  ( 5.809475019311121535, 0.000000000000000000, 0.000000000000000000 ) ) ;
#146 = ADVANCED_FACE ( 'NONE', ( #62, #53 ), #215, .T. ) ;
#147 = CARTESIAN_POINT ( 'NONE',  ( 9.699999999999999289, 0.000000000000000000, 25.99999999999999645 ) ) ;
#148 = FACE_BOUND ( 'NONE', #311, .T. ) ;
#149 = CARTESIAN_POINT ( 'NONE',  ( -11.30000000000000249, 0.000000000000000000, 0.000000000000000000 ) ) ;
#150 = CARTESIAN_POINT ( 'NONE',  ( -10.70000000000000284, 10.00000000000000000, 0.000000000000000000 ) ) ;
#151 = DIRECTION ( 'NONE',  ( 1.000000000000000000, 1.836970198721029688E-16, 0.000000000000000000 ) ) ;
#152 = AXIS2_PLACEMENT_3D ( 'NONE', #131, #253, #27 ) ;
#153 = AXIS2_PLACEMENT_3D ( 'NONE', #174, #221, #86 ) ;
#154 = CIRCLE ( 'NONE', #183, 25.39999999999999503 ) ;
#155 = FACE_OUTER_BOUND ( 'NONE', #107, .T. ) ;
#156 = VERTEX_POINT ( 'NONE', #332 ) ;
#157 = PERSON_AND_ORGANIZATION_ROLE ( 'design_supplier' ) ;
#158 = CC_DESIGN_PERSON_AND_ORGANIZATION_ASSIGNMENT ( #273, #157, ( #354 ) ) ;
#159 = CARTESIAN_POINT ( 'NONE',  ( -11.29999999999999538, -18.00000000000000355, 0.000000000000000000 ) ) ;
#160 = CALENDAR_DATE ( 2021, 23, 8 ) ;
#161 = AXIS2_PLACEMENT_3D ( 'NONE', #145, #52, #283 ) ;
#162 = DIRECTION ( 'NONE',  ( 0.000000000000000000, 0.000000000000000000, 1.000000000000000000 ) ) ;
#163 = EDGE_LOOP ( 'NONE', ( #173 ) ) ;
#164 = FACE_OUTER_BOUND ( 'NONE', #254, .T. ) ;
#165 = PERSON_AND_ORGANIZATION ( #212, #57 ) ;
#166 = CC_DESIGN_SECURITY_CLASSIFICATION ( #268, ( #354 ) ) ;
#167 = VERTEX_POINT ( 'NONE', #180 ) ;
#168 = AXIS2_PLACEMENT_3D ( 'NONE', #200, #117, #182 ) ;
#169 = FACE_OUTER_BOUND ( 'NONE', #327, .T. ) ;
#170 = FACE_OUTER_BOUND ( 'NONE', #71, .T. ) ;
#171 = APPROVAL_STATUS ( 'not_yet_approved' ) ;
#172 = EDGE_LOOP ( 'NONE', ( #267 ) ) ;
#173 = ORIENTED_EDGE ( 'NONE', *, *, #207, .F. ) ;
#174 = CARTESIAN_POINT ( 'NONE',  ( -11.30000000000000249, 0.000000000000000000, 0.000000000000000000 ) ) ;
#175 = APPROVAL ( #276, 'UNSPECIFIED' ) ;
#176 = FACE_OUTER_BOUND ( 'NONE', #338, .T. ) ;
#177 = DIRECTION ( 'NONE',  ( 1.927470528863118556E-16, -1.000000000000000000, 0.000000000000000000 ) ) ;
#178 = DIRECTION ( 'NONE',  ( 1.000000000000000000, 0.000000000000000000, 0.000000000000000000 ) ) ;
#179 = AXIS2_PLACEMENT_3D ( 'NONE', #232, #93, #113 ) ;
#180 = CARTESIAN_POINT ( 'NONE',  ( -5.809475019311120647, 0.000000000000000000, 25.99999999999999645 ) ) ;
#181 = CARTESIAN_POINT ( 'NONE',  ( 5.809475019311121535, 0.000000000000000000, 25.99999999999999645 ) ) ;
#182 = DIRECTION ( 'NONE',  ( 0.000000000000000000, 0.000000000000000000, -1.000000000000000000 ) ) ;
#183 = AXIS2_PLACEMENT_3D ( 'NONE', #130, #310, #19 ) ;
#184 = CIRCLE ( 'NONE', #114, 25.39999999999999503 ) ;
#185 = APPROVAL_DATE_TIME ( #126, #259 ) ;
#186 = EDGE_LOOP ( 'NONE', ( #205 ) ) ;
#187 = CARTESIAN_POINT ( 'NONE',  ( 10.29999999999999893, 3.967855629237424480E-15, 18.00000000000000355 ) ) ;
#188 = AXIS2_PLACEMENT_3D ( 'NONE', #91, #281, #43 ) ;
#189 = CARTESIAN_POINT ( 'NONE',  ( -11.29999999999999893, 0.000000000000000000, 0.000000000000000000 ) ) ;
#190 = ORIENTED_EDGE ( 'NONE', *, *, #143, .T. ) ;
#191 = APPROVAL_ROLE ( '' ) ;
#192 = DIRECTION ( 'NONE',  ( 1.000000000000000000, 1.836970198721029688E-16, 0.000000000000000000 ) ) ;
#193 = DIRECTION ( 'NONE',  ( -1.000000000000000000, -0.000000000000000000, -0.000000000000000000 ) ) ;
#194 = APPROVAL_PERSON_ORGANIZATION ( #65, #259, #96 ) ;
#195 = ORIENTED_EDGE ( 'NONE', *, *, #35, .T. ) ;
#196 = DESIGN_CONTEXT ( 'detailed design', #249, 'design' ) ;
#197 = ORIENTED_EDGE ( 'NONE', *, *, #266, .F. ) ;
#198 = CC_DESIGN_PERSON_AND_ORGANIZATION_ASSIGNMENT ( #247, #105, ( #361 ) ) ;
#199 = CARTESIAN_POINT ( 'NONE',  ( -10.70000000000000107, 1.102182119232620869E-16, 0.000000000000000000 ) ) ;
#200 = CARTESIAN_POINT ( 'NONE',  ( -9.700000000000001066, 0.000000000000000000, 0.000000000000000000 ) ) ;
#201 = CC_DESIGN_APPROVAL ( #223, ( #361 ) ) ;
#202 = DIRECTION ( 'NONE',  ( 1.734723475976807094E-16, -1.000000000000000000, 0.000000000000000000 ) ) ;
#203 = DIRECTION ( 'NONE',  ( -1.000000000000000000, -0.000000000000000000, -0.000000000000000000 ) ) ;
#204 = CALENDAR_DATE ( 2021, 23, 8 ) ;
#205 = ORIENTED_EDGE ( 'NONE', *, *, #266, .T. ) ;
#206 = AXIS2_PLACEMENT_3D ( 'NONE', #217, #78, #365 ) ;
#207 = EDGE_CURVE ( 'NONE', #346, #346, #274, .T. ) ;
#208 = VERTEX_POINT ( 'NONE', #69 ) ;
#209 = COORDINATED_UNIVERSAL_TIME_OFFSET ( 1, 0, .AHEAD. ) ;
#210 = PERSON_AND_ORGANIZATION_ROLE ( 'creator' ) ;
#211 = EDGE_LOOP ( 'NONE', ( #14 ) ) ;
#212 = PERSON ( 'UNSPECIFIED', 'UNSPECIFIED', 'UNSPECIFIED', ('UNSPECIFIED'), ('UNSPECIFIED'), ('UNSPECIFIED') ) ;
#213 = DATE_AND_TIME ( #77, #239 ) ;
#214 = COORDINATED_UNIVERSAL_TIME_OFFSET ( 1, 0, .AHEAD. ) ;
#215 = TOROIDAL_SURFACE ( 'NONE', #129, 25.39999999999999503, 0.5999999999999999778 ) ;
#216 = EDGE_CURVE ( 'NONE', #334, #334, #344, .T. ) ;
#217 = CARTESIAN_POINT ( 'NONE',  ( 10.29999999999999893, 3.967855629237424480E-15, 0.000000000000000000 ) ) ;
#218 = FACE_BOUND ( 'NONE', #79, .T. ) ;
#219 = ORIENTED_EDGE ( 'NONE', *, *, #35, .F. ) ;
#220 = TOROIDAL_SURFACE ( 'NONE', #362, 10.59999999999999964, 0.5999999999999999778 ) ;
#221 = DIRECTION ( 'NONE',  ( -1.000000000000000000, -1.836970198721029688E-16, -0.000000000000000000 ) ) ;
#222 = DIRECTION ( 'NONE',  ( 0.000000000000000000, 0.000000000000000000, 1.000000000000000000 ) ) ;
#223 = APPROVAL ( #171, 'UNSPECIFIED' ) ;
#224 = ORIENTED_EDGE ( 'NONE', *, *, #137, .F. ) ;
#225 = CARTESIAN_POINT ( 'NONE',  ( -10.30000000000000071, 1.836970198721034371E-16, -18.00000000000000355 ) ) ;
#226 = AXIS2_PLACEMENT_3D ( 'NONE', #246, #243, #108 ) ;
#227 = AXIS2_PLACEMENT_3D ( 'NONE', #241, #15, #124 ) ;
#228 = CARTESIAN_POINT ( 'NONE',  ( 10.70000000000000107, -9.999999999999996447, 0.000000000000000000 ) ) ;
#229 =( LENGTH_UNIT ( ) NAMED_UNIT ( * ) SI_UNIT ( .MILLI., .METRE. ) );
#230 = DIRECTION ( 'NONE',  ( 1.927470528863118556E-16, -1.000000000000000000, 0.000000000000000000 ) ) ;
#231 = PRODUCT_DEFINITION_SHAPE ( 'NONE', 'NONE',  #361 ) ;
#232 = CARTESIAN_POINT ( 'NONE',  ( -10.30000000000000071, 18.00000000000000711, 0.000000000000000000 ) ) ;
#233 = CARTESIAN_POINT ( 'NONE',  ( -5.809475019311120647, 0.000000000000000000, 0.000000000000000000 ) ) ;
#234 = CARTESIAN_POINT ( 'NONE',  ( -10.30000000000000071, 0.000000000000000000, -25.39999999999999503 ) ) ;
#235 = PRODUCT_RELATED_PRODUCT_CATEGORY ( 'detail', '', ( #68 ) ) ;
#236 = EDGE_LOOP ( 'NONE', ( #29 ) ) ;
#237 = EDGE_CURVE ( 'NONE', #167, #167, #316, .T. ) ;
#238 = DIRECTION ( 'NONE',  ( 1.000000000000000000, 0.000000000000000000, 0.000000000000000000 ) ) ;
#239 = LOCAL_TIME ( 16, 51, 10.00000000000000000, #360 ) ;
#240 = CIRCLE ( 'NONE', #323, 10.00000000000000000 ) ;
#241 = CARTESIAN_POINT ( 'NONE',  ( 0.000000000000000000, 0.000000000000000000, 0.000000000000000000 ) ) ;
#242 = SHAPE_DEFINITION_REPRESENTATION ( #231, #70 ) ;
#243 = DIRECTION ( 'NONE',  ( -1.000000000000000000, -1.836970198721029688E-16, -0.000000000000000000 ) ) ;
#244 = CALENDAR_DATE ( 2021, 23, 8 ) ;
#245 = AXIS2_PLACEMENT_3D ( 'NONE', #48, #134, #222 ) ;
#246 = CARTESIAN_POINT ( 'NONE',  ( 11.30000000000000071, 4.151552649109527991E-15, 0.000000000000000000 ) ) ;
#247 = PERSON_AND_ORGANIZATION ( #212, #57 ) ;
#248 = EDGE_LOOP ( 'NONE', ( #111 ) ) ;
#249 = APPLICATION_CONTEXT ( 'configuration controlled 3d designs of mechanical parts and assemblies' ) ;
#250 = EDGE_LOOP ( 'NONE', ( #331 ) ) ;
#251 = DIRECTION ( 'NONE',  ( -1.000000000000000000, -1.836970198721029688E-16, -0.000000000000000000 ) ) ;
#252 = CIRCLE ( 'NONE', #298, 10.00000000000000000 ) ;
#253 = DIRECTION ( 'NONE',  ( -1.000000000000000000, 0.000000000000000000, -0.000000000000000000 ) ) ;
#254 = EDGE_LOOP ( 'NONE', ( #41 ) ) ;
#255 = PLANE ( 'NONE',  #152 ) ;
#256 = FACE_OUTER_BOUND ( 'NONE', #341, .T. ) ;
#257 = CIRCLE ( 'NONE', #161, 25.99999999999999645 ) ;
#258 = DIRECTION ( 'NONE',  ( -1.000000000000000000, -1.836970198721029688E-16, -0.000000000000000000 ) ) ;
#259 = APPROVAL ( #101, 'UNSPECIFIED' ) ;
#260 = VERTEX_POINT ( 'NONE', #142 ) ;
#261 = CARTESIAN_POINT ( 'NONE',  ( 0.000000000000000000, 0.000000000000000000, 0.000000000000000000 ) ) ;
#262 = DIRECTION ( 'NONE',  ( -1.636531581110195409E-16, 1.000000000000000000, 0.000000000000000000 ) ) ;
#263 = EDGE_CURVE ( 'NONE', #32, #32, #92, .T. ) ;
#264 = AXIS2_PLACEMENT_3D ( 'NONE', #133, #192, #44 ) ;
#265 = TOROIDAL_SURFACE ( 'NONE', #227, 31.50000000000000000, 8.000000000000000000 ) ;
#266 = EDGE_CURVE ( 'NONE', #277, #277, #252, .T. ) ;
#267 = ORIENTED_EDGE ( 'NONE', *, *, #301, .T. ) ;
#268 = SECURITY_CLASSIFICATION ( '', '', #12 ) ;
#269 = AXIS2_PLACEMENT_3D ( 'NONE', #139, #251, #177 ) ;
#270 = ADVANCED_FACE ( 'NONE', ( #104, #23 ), #303, .T. ) ;
#271 = CARTESIAN_POINT ( 'NONE',  ( 10.30000000000000071, 0.000000000000000000, 0.000000000000000000 ) ) ;
#272 = PERSON_AND_ORGANIZATION_ROLE ( 'design_owner' ) ;
#273 = PERSON_AND_ORGANIZATION ( #212, #57 ) ;
#274 = CIRCLE ( 'NONE', #168, 25.99999999999999645 ) ;
#275 = APPROVAL_PERSON_ORGANIZATION ( #42, #175, #99 ) ;
#276 = APPROVAL_STATUS ( 'not_yet_approved' ) ;
#277 = VERTEX_POINT ( 'NONE', #150 ) ;
#278 = FACE_OUTER_BOUND ( 'NONE', #308, .T. ) ;
#279 = ADVANCED_FACE ( 'NONE', ( #164, #132 ), #330, .T. ) ;
#280 = DIRECTION ( 'NONE',  ( -1.734723475976807094E-16, 1.000000000000000000, 0.000000000000000000 ) ) ;
#281 = DIRECTION ( 'NONE',  ( -1.000000000000000000, -0.000000000000000000, -0.000000000000000000 ) ) ;
#282 = ORIENTED_EDGE ( 'NONE', *, *, #207, .T. ) ;
#283 = DIRECTION ( 'NONE',  ( 0.000000000000000000, 0.000000000000000000, 1.000000000000000000 ) ) ;
#284 = LOCAL_TIME ( 16, 51, 10.00000000000000000, #209 ) ;
#285 = EDGE_LOOP ( 'NONE', ( #366 ) ) ;
#286 = CC_DESIGN_DATE_AND_TIME_ASSIGNMENT ( #306, #80, ( #361 ) ) ;
#287 = ORIENTED_EDGE ( 'NONE', *, *, #263, .T. ) ;
#288 = DIRECTION ( 'NONE',  ( 0.000000000000000000, 0.000000000000000000, 1.000000000000000000 ) ) ;
#289 = FACE_OUTER_BOUND ( 'NONE', #317, .T. ) ;
#290 = EDGE_CURVE ( 'NONE', #296, #296, #154, .T. ) ;
#291 = DIRECTION ( 'NONE',  ( 0.000000000000000000, 0.000000000000000000, -1.000000000000000000 ) ) ;
#292 = CIRCLE ( 'NONE', #10, 18.00000000000000355 ) ;
#293 = DIRECTION ( 'NONE',  ( -1.836970198721029688E-16, 1.000000000000000000, 0.000000000000000000 ) ) ;
#294 = PLANE ( 'NONE',  #179 ) ;
#295 = ADVANCED_FACE ( 'NONE', ( #72, #37 ), #123, .T. ) ;
#296 = VERTEX_POINT ( 'NONE', #234 ) ;
#297 = APPROVAL_PERSON_ORGANIZATION ( #165, #223, #191 ) ;
#298 = AXIS2_PLACEMENT_3D ( 'NONE', #85, #76, #280 ) ;
#299 = PERSON_AND_ORGANIZATION ( #212, #57 ) ;
#300 = ORIENTED_EDGE ( 'NONE', *, *, #237, .T. ) ;
#301 = EDGE_CURVE ( 'NONE', #156, #156, #21, .T. ) ;
#302 = EDGE_LOOP ( 'NONE', ( #219 ) ) ;
#303 = CYLINDRICAL_SURFACE ( 'NONE', #5, 25.99999999999999645 ) ;
#304 = VERTEX_POINT ( 'NONE', #187 ) ;
#305 = CC_DESIGN_PERSON_AND_ORGANIZATION_ASSIGNMENT ( #299, #272, ( #68 ) ) ;
#306 = DATE_AND_TIME ( #337, #94 ) ;
#307 = EDGE_CURVE ( 'NONE', #304, #304, #45, .T. ) ;
#308 = EDGE_LOOP ( 'NONE', ( #121 ) ) ;
#309 = LOCAL_TIME ( 16, 51, 10.00000000000000000, #20 ) ;
#310 = DIRECTION ( 'NONE',  ( -1.000000000000000000, -0.000000000000000000, -0.000000000000000000 ) ) ;
#311 = EDGE_LOOP ( 'NONE', ( #195 ) ) ;
#312 = PLANE ( 'NONE',  #88 ) ;
#313 = ORIENTED_EDGE ( 'NONE', *, *, #137, .T. ) ;
#314 = ADVANCED_FACE ( 'NONE', ( #46, #170 ), #265, .F. ) ;
#315 = CLOSED_SHELL ( 'NONE', ( #279, #50, #38, #347, #119, #314, #270, #97, #9, #295, #368, #103, #146, #106 ) ) ;
#316 = CIRCLE ( 'NONE', #83, 25.99999999999999645 ) ;
#317 = EDGE_LOOP ( 'NONE', ( #67 ) ) ;
#318 =( NAMED_UNIT ( * ) PLANE_ANGLE_UNIT ( ) SI_UNIT ( $, .RADIAN. ) );
#319 = DIRECTION ( 'NONE',  ( 1.000000000000000000, 1.836970198721029688E-16, 0.000000000000000000 ) ) ;
#320 = CARTESIAN_POINT ( 'NONE',  ( -11.30000000000000249, 10.59999999999999964, 0.000000000000000000 ) ) ;
#321 = DIRECTION ( 'NONE',  ( -1.000000000000000000, -1.836970198721029688E-16, -0.000000000000000000 ) ) ;
#322 = EDGE_CURVE ( 'NONE', #208, #208, #184, .T. ) ;
#323 = AXIS2_PLACEMENT_3D ( 'NONE', #90, #319, #324 ) ;
#324 = DIRECTION ( 'NONE',  ( 1.734723475976807094E-16, -1.000000000000000000, 0.000000000000000000 ) ) ;
#325 = DATE_AND_TIME ( #204, #128 ) ;
#326 = AXIS2_PLACEMENT_3D ( 'NONE', #261, #120, #238 ) ;
#327 = EDGE_LOOP ( 'NONE', ( #342 ) ) ;
#328 =( GEOMETRIC_REPRESENTATION_CONTEXT ( 3 ) GLOBAL_UNCERTAINTY_ASSIGNED_CONTEXT ( ( #3 ) ) GLOBAL_UNIT_ASSIGNED_CONTEXT ( ( #229, #318, #116 ) ) REPRESENTATION_CONTEXT ( 'NONE', 'WORKASPACE' ) );
#329 = PERSON_AND_ORGANIZATION ( #212, #57 ) ;
#330 = CYLINDRICAL_SURFACE ( 'NONE', #356, 18.00000000000000355 ) ;
#331 = ORIENTED_EDGE ( 'NONE', *, *, #216, .T. ) ;
#332 = CARTESIAN_POINT ( 'NONE',  ( 11.30000000000000249, -10.59999999999999609, 0.000000000000000000 ) ) ;
#333 = PERSON_AND_ORGANIZATION ( #212, #57 ) ;
#334 = VERTEX_POINT ( 'NONE', #320 ) ;
#335 = CARTESIAN_POINT ( 'NONE',  ( -10.30000000000000071, 1.836970198721034371E-16, 0.000000000000000000 ) ) ;
#336 = DIRECTION ( 'NONE',  ( -1.000000000000000000, -1.836970198721029688E-16, -0.000000000000000000 ) ) ;
#337 = CALENDAR_DATE ( 2021, 23, 8 ) ;
#338 = EDGE_LOOP ( 'NONE', ( #339 ) ) ;
#339 = ORIENTED_EDGE ( 'NONE', *, *, #143, .F. ) ;
#340 = EDGE_CURVE ( 'NONE', #59, #59, #58, .T. ) ;
#341 = EDGE_LOOP ( 'NONE', ( #190 ) ) ;
#342 = ORIENTED_EDGE ( 'NONE', *, *, #307, .F. ) ;
#343 = CC_DESIGN_APPROVAL ( #259, ( #268 ) ) ;
#344 = CIRCLE ( 'NONE', #364, 10.59999999999999964 ) ;
#345 = FACE_OUTER_BOUND ( 'NONE', #25, .T. ) ;
#346 = VERTEX_POINT ( 'NONE', #54 ) ;
#347 = ADVANCED_FACE ( 'NONE', ( #2, #31 ), #312, .F. ) ;
#348 = FACE_OUTER_BOUND ( 'NONE', #138, .T. ) ;
#349 = AXIS2_PLACEMENT_3D ( 'NONE', #199, #350, #293 ) ;
#350 = DIRECTION ( 'NONE',  ( 1.000000000000000000, 1.836970198721029688E-16, 0.000000000000000000 ) ) ;
#351 = MANIFOLD_SOLID_BREP ( 'Fillet1', #315 ) ;
#352 = EDGE_LOOP ( 'NONE', ( #51 ) ) ;
#353 = APPLICATION_PROTOCOL_DEFINITION ( 'international standard', 'config_control_design', 1994, #61 ) ;
#354 = PRODUCT_DEFINITION_FORMATION_WITH_SPECIFIED_SOURCE ( 'ANY', '', #68, .NOT_KNOWN. ) ;
#355 = AXIS2_PLACEMENT_3D ( 'NONE', #335, #1, #369 ) ;
#356 = AXIS2_PLACEMENT_3D ( 'NONE', #36, #336, #127 ) ;
#357 = CC_DESIGN_PERSON_AND_ORGANIZATION_ASSIGNMENT ( #329, #13, ( #268 ) ) ;
#358 = EDGE_LOOP ( 'NONE', ( #287 ) ) ;
#359 = APPROVAL_DATE_TIME ( #102, #223 ) ;
#360 = COORDINATED_UNIVERSAL_TIME_OFFSET ( 1, 0, .AHEAD. ) ;
#361 = PRODUCT_DEFINITION ( 'UNKNOWN', '', #354, #196 ) ;
#362 = AXIS2_PLACEMENT_3D ( 'NONE', #7, #258, #60 ) ;
#363 = EDGE_CURVE ( 'NONE', #55, #55, #257, .T. ) ;
#364 = AXIS2_PLACEMENT_3D ( 'NONE', #34, #151, #262 ) ;
#365 = DIRECTION ( 'NONE',  ( 0.000000000000000000, 0.000000000000000000, 1.000000000000000000 ) ) ;
#366 = ORIENTED_EDGE ( 'NONE', *, *, #363, .F. ) ;
#367 = CARTESIAN_POINT ( 'NONE',  ( -11.29999999999999893, 0.000000000000000000, 0.000000000000000000 ) ) ;
#368 = ADVANCED_FACE ( 'NONE', ( #345, #135 ), #66, .T. ) ;
#369 = DIRECTION ( 'NONE',  ( 0.000000000000000000, 0.000000000000000000, -1.000000000000000000 ) ) ;
ENDSEC;
END-ISO-10303-21;
