ISO-10303-21;
HEADER;
FILE_DESCRIPTION (( 'STEP AP203' ),
    '1' );
FILE_NAME ('LFR 50_5-6KDD.step',
    '2021-08-23T14:51:08',
    ( '' ),
    ( '' ),
    'SwSTEP 2.0',
    'SolidWorks 2020',
    '' );
FILE_SCHEMA (( 'CONFIG_CONTROL_DESIGN' ));
ENDSEC;

DATA;
#1 = DIRECTION ( 'NONE',  ( -1.000000000000000000, -1.779997537351053725E-16, -0.000000000000000000 ) ) ;
#2 = CARTESIAN_POINT ( 'NONE',  ( -4.000000000000000888, 2.500000000000000000, 0.000000000000000000 ) ) ;
#3 = ORIENTED_EDGE ( 'NONE', *, *, #153, .F. ) ;
#4 = FACE_BOUND ( 'NONE', #66, .T. ) ;
#5 = AXIS2_PLACEMENT_3D ( 'NONE', #265, #248, #169 ) ;
#6 = FACE_OUTER_BOUND ( 'NONE', #173, .T. ) ;
#7 = CC_DESIGN_APPROVAL ( #250, ( #322 ) ) ;
#8 = CYLINDRICAL_SURFACE ( 'NONE', #5, 8.499999999999998224 ) ;
#9 = DATE_AND_TIME ( #268, #206 ) ;
#10 = CIRCLE ( 'NONE', #44, 8.499999999999998224 ) ;
#11 = DIRECTION ( 'NONE',  ( -1.000000000000000000, -2.168404344971008868E-16, -0.000000000000000000 ) ) ;
#12 = COORDINATED_UNIVERSAL_TIME_OFFSET ( 1, 0, .AHEAD. ) ;
#13 = PERSON_AND_ORGANIZATION ( #27, #213 ) ;
#14 = APPROVAL_STATUS ( 'not_yet_approved' ) ;
#15 = ADVANCED_FACE ( 'NONE', ( #266, #43 ), #159, .F. ) ;
#16 = AXIS2_PLACEMENT_3D ( 'NONE', #134, #269, #339 ) ;
#17 = LOCAL_TIME ( 16, 51, 8.000000000000000000, #362 ) ;
#18 = PRODUCT ( 'LFR 50_5-6KDD', 'LFR 50_5-6KDD', '', ( #194 ) ) ;
#19 = CARTESIAN_POINT ( 'NONE',  ( -3.500000000000000444, 8.300000000000000711, 0.000000000000000000 ) ) ;
#20 = PERSON_AND_ORGANIZATION ( #27, #213 ) ;
#21 = EDGE_LOOP ( 'NONE', ( #346 ) ) ;
#22 = EDGE_CURVE ( 'NONE', #156, #156, #359, .T. ) ;
#23 = DIRECTION ( 'NONE',  ( -1.000000000000000000, -1.779997537351053725E-16, -0.000000000000000000 ) ) ;
#24 = CIRCLE ( 'NONE', #145, 2.700000000000000178 ) ;
#25 = APPROVAL_PERSON_ORGANIZATION ( #20, #241, #307 ) ;
#26 = VERTEX_POINT ( 'NONE', #109 ) ;
#27 = PERSON ( 'UNSPECIFIED', 'UNSPECIFIED', 'UNSPECIFIED', ('UNSPECIFIED'), ('UNSPECIFIED'), ('UNSPECIFIED') ) ;
#28 = EDGE_CURVE ( 'NONE', #62, #62, #304, .T. ) ;
#29 = FACE_OUTER_BOUND ( 'NONE', #123, .T. ) ;
#30 = AXIS2_PLACEMENT_3D ( 'NONE', #293, #316, #364 ) ;
#31 = EDGE_LOOP ( 'NONE', ( #175 ) ) ;
#32 = CARTESIAN_POINT ( 'NONE',  ( 2.236067977499791581, 1.352231689794511966E-15, 0.000000000000000000 ) ) ;
#33 = EDGE_LOOP ( 'NONE', ( #253 ) ) ;
#34 = DIRECTION ( 'NONE',  ( -1.000000000000000000, -2.168404344971008868E-16, -0.000000000000000000 ) ) ;
#35 = CYLINDRICAL_SURFACE ( 'NONE', #361, 2.500000000000000000 ) ;
#36 = EDGE_CURVE ( 'NONE', #260, #260, #340, .T. ) ;
#37 = ORIENTED_EDGE ( 'NONE', *, *, #318, .T. ) ;
#38 = DIRECTION ( 'NONE',  ( 1.927470528863118556E-16, -1.000000000000000000, 0.000000000000000000 ) ) ;
#39 = EDGE_LOOP ( 'NONE', ( #155 ) ) ;
#40 = DIRECTION ( 'NONE',  ( 1.000000000000000000, 2.168404344971008868E-16, 0.000000000000000000 ) ) ;
#41 = ADVANCED_FACE ( 'NONE', ( #224, #279 ), #337, .F. ) ;
#42 = DIRECTION ( 'NONE',  ( 1.927470528863118556E-16, -1.000000000000000000, 0.000000000000000000 ) ) ;
#43 = FACE_OUTER_BOUND ( 'NONE', #345, .T. ) ;
#44 = AXIS2_PLACEMENT_3D ( 'NONE', #32, #34, #97 ) ;
#45 = EDGE_CURVE ( 'NONE', #229, #229, #68, .T. ) ;
#46 = CARTESIAN_POINT ( 'NONE',  ( 3.999999999999999112, 4.500000000000002665, 0.000000000000000000 ) ) ;
#47 = AXIS2_PLACEMENT_3D ( 'NONE', #121, #230, #92 ) ;
#48 = CARTESIAN_POINT ( 'NONE',  ( -3.300000000000000266, 8.500000000000000000, 0.000000000000000000 ) ) ;
#49 = DIRECTION ( 'NONE',  ( -1.000000000000000000, -1.779997537351053725E-16, -0.000000000000000000 ) ) ;
#50 = CARTESIAN_POINT ( 'NONE',  ( 0.000000000000000000, 0.000000000000000000, 0.000000000000000000 ) ) ;
#51 = DIRECTION ( 'NONE',  ( 1.000000000000000000, 0.000000000000000000, 0.000000000000000000 ) ) ;
#52 = SECURITY_CLASSIFICATION_LEVEL ( 'unclassified' ) ;
#53 = CIRCLE ( 'NONE', #182, 8.500000000000000000 ) ;
#54 = CARTESIAN_POINT ( 'NONE',  ( 2.236067977499793358, -8.499999999999996447, 0.000000000000000000 ) ) ;
#55 = DATE_AND_TIME ( #275, #17 ) ;
#56 = PRODUCT_RELATED_PRODUCT_CATEGORY ( 'detail', '', ( #18 ) ) ;
#57 = ORIENTED_EDGE ( 'NONE', *, *, #22, .T. ) ;
#58 = DIRECTION ( 'NONE',  ( -2.090028284309405995E-16, 1.000000000000000000, 0.000000000000000000 ) ) ;
#59 = UNCERTAINTY_MEASURE_WITH_UNIT (LENGTH_MEASURE( 1.000000000000000082E-05 ), #219, 'distance_accuracy_value', 'NONE');
#60 = ORIENTED_EDGE ( 'NONE', *, *, #318, .F. ) ;
#61 = CARTESIAN_POINT ( 'NONE',  ( 3.799999999999999378, 1.388398079133822038E-15, 0.000000000000000000 ) ) ;
#62 = VERTEX_POINT ( 'NONE', #353 ) ;
#63 = DIRECTION ( 'NONE',  ( 1.779997537351053725E-16, -1.000000000000000000, 0.000000000000000000 ) ) ;
#64 = ORIENTED_EDGE ( 'NONE', *, *, #181, .T. ) ;
#65 = DIRECTION ( 'NONE',  ( 2.090028284309406488E-16, -1.000000000000000000, 0.000000000000000000 ) ) ;
#66 = EDGE_LOOP ( 'NONE', ( #369 ) ) ;
#67 = CARTESIAN_POINT ( 'NONE',  ( -4.000000000000000000, 7.824090399073145653E-32, 0.000000000000000000 ) ) ;
#68 = CIRCLE ( 'NONE', #76, 8.499999999999998224 ) ;
#69 = EDGE_LOOP ( 'NONE', ( #118 ) ) ;
#70 = LOCAL_TIME ( 16, 51, 8.000000000000000000, #186 ) ;
#71 = CARTESIAN_POINT ( 'NONE',  ( -3.299999999999998490, 1.517883041479708919E-16, 0.000000000000000000 ) ) ;
#72 = PERSON_AND_ORGANIZATION_ROLE ( 'creator' ) ;
#73 = ORIENTED_EDGE ( 'NONE', *, *, #220, .T. ) ;
#74 = APPROVAL_DATE_TIME ( #9, #250 ) ;
#75 = EDGE_CURVE ( 'NONE', #365, #365, #368, .T. ) ;
#76 = AXIS2_PLACEMENT_3D ( 'NONE', #252, #344, #90 ) ;
#77 = CALENDAR_DATE ( 2021, 23, 8 ) ;
#78 = VERTEX_POINT ( 'NONE', #54 ) ;
#79 = COORDINATED_UNIVERSAL_TIME_OFFSET ( 1, 0, .AHEAD. ) ;
#80 = DIRECTION ( 'NONE',  ( 1.779997537351053478E-16, -1.000000000000000000, 0.000000000000000000 ) ) ;
#81 = CIRCLE ( 'NONE', #356, 2.500000000000000000 ) ;
#82 = APPROVAL_ROLE ( '' ) ;
#83 = ADVANCED_FACE ( 'NONE', ( #174, #29 ), #256, .T. ) ;
#84 = CC_DESIGN_SECURITY_CLASSIFICATION ( #360, ( #310 ) ) ;
#85 = VERTEX_POINT ( 'NONE', #244 ) ;
#86 = FACE_BOUND ( 'NONE', #33, .T. ) ;
#87 = APPROVAL_DATE_TIME ( #55, #208 ) ;
#88 =( GEOMETRIC_REPRESENTATION_CONTEXT ( 3 ) GLOBAL_UNCERTAINTY_ASSIGNED_CONTEXT ( ( #59 ) ) GLOBAL_UNIT_ASSIGNED_CONTEXT ( ( #219, #274, #112 ) ) REPRESENTATION_CONTEXT ( 'NONE', 'WORKASPACE' ) );
#89 = ADVANCED_FACE ( 'NONE', ( #317, #308 ), #261, .F. ) ;
#90 = DIRECTION ( 'NONE',  ( 2.040851148208008738E-16, -1.000000000000000000, 0.000000000000000000 ) ) ;
#91 = FACE_OUTER_BOUND ( 'NONE', #299, .T. ) ;
#92 = DIRECTION ( 'NONE',  ( 2.040851148208008245E-16, -1.000000000000000000, 0.000000000000000000 ) ) ;
#93 = DIRECTION ( 'NONE',  ( 1.000000000000000000, 1.779997537351053725E-16, 0.000000000000000000 ) ) ;
#94 = EDGE_LOOP ( 'NONE', ( #3 ) ) ;
#95 = FACE_OUTER_BOUND ( 'NONE', #257, .T. ) ;
#96 = TOROIDAL_SURFACE ( 'NONE', #341, 2.700000000000000178, 0.2000000000000000111 ) ;
#97 = DIRECTION ( 'NONE',  ( 2.040851148208008738E-16, -1.000000000000000000, 0.000000000000000000 ) ) ;
#98 = DIRECTION ( 'NONE',  ( 1.000000000000000000, 1.779997537351053478E-16, 0.000000000000000000 ) ) ;
#99 = EDGE_LOOP ( 'NONE', ( #348 ) ) ;
#100 = CARTESIAN_POINT ( 'NONE',  ( -4.000000000000000888, 0.000000000000000000, 0.000000000000000000 ) ) ;
#101 = CARTESIAN_POINT ( 'NONE',  ( -3.499999999999999556, 4.500000000000000888, 0.000000000000000000 ) ) ;
#102 = EDGE_LOOP ( 'NONE', ( #147 ) ) ;
#103 = EDGE_CURVE ( 'NONE', #26, #26, #254, .T. ) ;
#104 = FACE_OUTER_BOUND ( 'NONE', #21, .T. ) ;
#105 = DIRECTION ( 'NONE',  ( 1.927470528863118556E-16, -1.000000000000000000, 0.000000000000000000 ) ) ;
#106 = CC_DESIGN_APPROVAL ( #241, ( #360 ) ) ;
#107 = PERSON_AND_ORGANIZATION ( #27, #213 ) ;
#108 = EDGE_CURVE ( 'NONE', #197, #197, #119, .T. ) ;
#109 = CARTESIAN_POINT ( 'NONE',  ( 3.799999999999999822, -2.499999999999998668, 0.000000000000000000 ) ) ;
#110 = CALENDAR_DATE ( 2021, 23, 8 ) ;
#111 = PERSON_AND_ORGANIZATION_ROLE ( 'design_owner' ) ;
#112 =( NAMED_UNIT ( * ) SI_UNIT ( $, .STERADIAN. ) SOLID_ANGLE_UNIT ( ) );
#113 = DIRECTION ( 'NONE',  ( 0.000000000000000000, 0.000000000000000000, 1.000000000000000000 ) ) ;
#114 = CARTESIAN_POINT ( 'NONE',  ( -3.800000000000000266, 3.559995074702116941E-17, 0.000000000000000000 ) ) ;
#115 = DIRECTION ( 'NONE',  ( 2.040851148208008245E-16, -1.000000000000000000, 0.000000000000000000 ) ) ;
#116 = CC_DESIGN_PERSON_AND_ORGANIZATION_ASSIGNMENT ( #138, #366, ( #310 ) ) ;
#117 = ADVANCED_FACE ( 'NONE', ( #140, #243 ), #96, .T. ) ;
#118 = ORIENTED_EDGE ( 'NONE', *, *, #363, .T. ) ;
#119 = CIRCLE ( 'NONE', #246, 4.500000000000000888 ) ;
#120 = ORIENTED_EDGE ( 'NONE', *, *, #286, .T. ) ;
#121 = CARTESIAN_POINT ( 'NONE',  ( -4.000000000000000000, 0.000000000000000000, 0.000000000000000000 ) ) ;
#122 = DIRECTION ( 'NONE',  ( -1.779997537351053478E-16, 1.000000000000000000, 0.000000000000000000 ) ) ;
#123 = EDGE_LOOP ( 'NONE', ( #198 ) ) ;
#124 = DIRECTION ( 'NONE',  ( -1.000000000000000000, -1.779997537351053725E-16, -0.000000000000000000 ) ) ;
#125 = ORIENTED_EDGE ( 'NONE', *, *, #108, .F. ) ;
#126 = FACE_OUTER_BOUND ( 'NONE', #320, .T. ) ;
#127 = CIRCLE ( 'NONE', #170, 8.299999999999998934 ) ;
#128 = ORIENTED_EDGE ( 'NONE', *, *, #75, .F. ) ;
#129 = CARTESIAN_POINT ( 'NONE',  ( -4.000000000000000888, 0.000000000000000000, 0.000000000000000000 ) ) ;
#130 = CC_DESIGN_DATE_AND_TIME_ASSIGNMENT ( #300, #158, ( #322 ) ) ;
#131 = DIRECTION ( 'NONE',  ( 3.212450881438531255E-16, -1.000000000000000000, 0.000000000000000000 ) ) ;
#132 = ORIENTED_EDGE ( 'NONE', *, *, #196, .F. ) ;
#133 = AXIS2_PLACEMENT_3D ( 'NONE', #61, #23, #63 ) ;
#134 = CARTESIAN_POINT ( 'NONE',  ( -3.499999999999998668, 8.899987686755309300E-17, 0.000000000000000000 ) ) ;
#135 = ADVANCED_FACE ( 'NONE', ( #86, #189 ), #195, .F. ) ;
#136 = AXIS2_PLACEMENT_3D ( 'NONE', #358, #49, #42 ) ;
#137 = AXIS2_PLACEMENT_3D ( 'NONE', #355, #11, #105 ) ;
#138 = PERSON_AND_ORGANIZATION ( #27, #213 ) ;
#139 = EDGE_LOOP ( 'NONE', ( #37 ) ) ;
#140 = FACE_OUTER_BOUND ( 'NONE', #288, .T. ) ;
#141 = CARTESIAN_POINT ( 'NONE',  ( -4.000000000000000888, 2.700000000000000178, 0.000000000000000000 ) ) ;
#142 = DIRECTION ( 'NONE',  ( 1.000000000000000000, 1.779997537351053725E-16, 0.000000000000000000 ) ) ;
#143 = CC_DESIGN_PERSON_AND_ORGANIZATION_ASSIGNMENT ( #283, #225, ( #360 ) ) ;
#144 = DIRECTION ( 'NONE',  ( 2.168404344971008868E-16, -1.000000000000000000, 0.000000000000000000 ) ) ;
#145 = AXIS2_PLACEMENT_3D ( 'NONE', #191, #1, #131 ) ;
#146 = DIRECTION ( 'NONE',  ( 1.000000000000000000, 2.168404344971008868E-16, 0.000000000000000000 ) ) ;
#147 = ORIENTED_EDGE ( 'NONE', *, *, #28, .F. ) ;
#148 = DIRECTION ( 'NONE',  ( -1.734723475976807094E-16, 1.000000000000000000, 0.000000000000000000 ) ) ;
#149 = FACE_OUTER_BOUND ( 'NONE', #177, .T. ) ;
#150 = AXIS2_PLACEMENT_3D ( 'NONE', #157, #325, #239 ) ;
#151 = CIRCLE ( 'NONE', #290, 2.700000000000000178 ) ;
#152 = DIRECTION ( 'NONE',  ( -1.000000000000000000, -1.779997537351053725E-16, -0.000000000000000000 ) ) ;
#153 = EDGE_CURVE ( 'NONE', #306, #306, #24, .T. ) ;
#154 = DESIGN_CONTEXT ( 'detailed design', #335, 'design' ) ;
#155 = ORIENTED_EDGE ( 'NONE', *, *, #75, .T. ) ;
#156 = VERTEX_POINT ( 'NONE', #297 ) ;
#157 = CARTESIAN_POINT ( 'NONE',  ( 2.602085213965210642E-15, 1.734723475976807094E-15, 0.000000000000000000 ) ) ;
#158 = DATE_TIME_ROLE ( 'creation_date' ) ;
#159 = TOROIDAL_SURFACE ( 'NONE', #150, 10.49999999999999822, 3.000000000000000000 ) ;
#160 = APPLICATION_CONTEXT ( 'configuration controlled 3d designs of mechanical parts and assemblies' ) ;
#161 = DATE_TIME_ROLE ( 'classification_date' ) ;
#162 = ADVANCED_FACE ( 'NONE', ( #321, #104 ), #8, .T. ) ;
#163 = DIRECTION ( 'NONE',  ( -1.000000000000000000, -1.779997537351053478E-16, 0.000000000000000000 ) ) ;
#164 = APPROVAL_PERSON_ORGANIZATION ( #329, #250, #302 ) ;
#165 = VERTEX_POINT ( 'NONE', #251 ) ;
#166 = DATE_AND_TIME ( #77, #296 ) ;
#167 = PRODUCT_DEFINITION_SHAPE ( 'NONE', 'NONE',  #322 ) ;
#168 = CARTESIAN_POINT ( 'NONE',  ( 3.300000000000003375, -8.499999999999996447, 0.000000000000000000 ) ) ;
#169 = DIRECTION ( 'NONE',  ( 2.040851148208008738E-16, -1.000000000000000000, 0.000000000000000000 ) ) ;
#170 = AXIS2_PLACEMENT_3D ( 'NONE', #232, #347, #65 ) ;
#171 = CARTESIAN_POINT ( 'NONE',  ( 3.799999999999999378, 1.388398079133822038E-15, 0.000000000000000000 ) ) ;
#172 = PERSON_AND_ORGANIZATION ( #27, #213 ) ;
#173 = EDGE_LOOP ( 'NONE', ( #231 ) ) ;
#174 = FACE_OUTER_BOUND ( 'NONE', #69, .T. ) ;
#175 = ORIENTED_EDGE ( 'NONE', *, *, #36, .F. ) ;
#176 = FACE_OUTER_BOUND ( 'NONE', #332, .T. ) ;
#177 = EDGE_LOOP ( 'NONE', ( #128 ) ) ;
#178 = DIRECTION ( 'NONE',  ( -1.000000000000000000, -1.779997537351053725E-16, -0.000000000000000000 ) ) ;
#179 = CARTESIAN_POINT ( 'NONE',  ( -3.299999999999998490, 1.517883041479709412E-16, 0.000000000000000000 ) ) ;
#180 = CARTESIAN_POINT ( 'NONE',  ( -4.000000000000000888, 0.000000000000000000, 0.000000000000000000 ) ) ;
#181 = EDGE_CURVE ( 'NONE', #165, #165, #81, .T. ) ;
#182 = AXIS2_PLACEMENT_3D ( 'NONE', #71, #40, #185 ) ;
#183 = AXIS2_PLACEMENT_3D ( 'NONE', #278, #336, #201 ) ;
#184 = EDGE_LOOP ( 'NONE', ( #187 ) ) ;
#185 = DIRECTION ( 'NONE',  ( -2.040851148208008245E-16, 1.000000000000000000, 0.000000000000000000 ) ) ;
#186 = COORDINATED_UNIVERSAL_TIME_OFFSET ( 1, 0, .AHEAD. ) ;
#187 = ORIENTED_EDGE ( 'NONE', *, *, #108, .T. ) ;
#188 = CC_DESIGN_PERSON_AND_ORGANIZATION_ASSIGNMENT ( #240, #72, ( #322 ) ) ;
#189 = FACE_OUTER_BOUND ( 'NONE', #102, .T. ) ;
#190 = VERTEX_POINT ( 'NONE', #48 ) ;
#191 = CARTESIAN_POINT ( 'NONE',  ( 4.000000000000000000, 1.423998029880843177E-15, 0.000000000000000000 ) ) ;
#192 = AXIS2_PLACEMENT_3D ( 'NONE', #2, #98, #122 ) ;
#193 = EDGE_LOOP ( 'NONE', ( #57 ) ) ;
#194 = MECHANICAL_CONTEXT ( 'NONE', #160, 'mechanical' ) ;
#195 = PLANE ( 'NONE',  #305 ) ;
#196 = EDGE_CURVE ( 'NONE', #330, #330, #280, .T. ) ;
#197 = VERTEX_POINT ( 'NONE', #277 ) ;
#198 = ORIENTED_EDGE ( 'NONE', *, *, #196, .T. ) ;
#199 = CARTESIAN_POINT ( 'NONE',  ( -3.499999999999998668, 1.084202172485507762E-16, 0.000000000000000000 ) ) ;
#200 = ORIENTED_EDGE ( 'NONE', *, *, #181, .F. ) ;
#201 = DIRECTION ( 'NONE',  ( 2.168404344971008621E-16, -1.000000000000000000, 0.000000000000000000 ) ) ;
#202 = DIRECTION ( 'NONE',  ( 1.734723475976807094E-16, -1.000000000000000000, 0.000000000000000000 ) ) ;
#203 = EDGE_LOOP ( 'NONE', ( #64 ) ) ;
#204 = FACE_OUTER_BOUND ( 'NONE', #233, .T. ) ;
#205 = AXIS2_PLACEMENT_3D ( 'NONE', #171, #93, #202 ) ;
#206 = LOCAL_TIME ( 16, 51, 8.000000000000000000, #79 ) ;
#207 = DIRECTION ( 'NONE',  ( -3.212450881438531255E-16, 1.000000000000000000, 0.000000000000000000 ) ) ;
#208 = APPROVAL ( #223, 'UNSPECIFIED' ) ;
#209 = ORIENTED_EDGE ( 'NONE', *, *, #22, .F. ) ;
#210 = FACE_OUTER_BOUND ( 'NONE', #94, .T. ) ;
#211 = EDGE_LOOP ( 'NONE', ( #273 ) ) ;
#212 = CARTESIAN_POINT ( 'NONE',  ( -2.236067977499788029, 3.824917861822959170E-16, 0.000000000000000000 ) ) ;
#213 = ORGANIZATION ( 'UNSPECIFIED', 'UNSPECIFIED', '' ) ;
#214 = APPROVAL_STATUS ( 'not_yet_approved' ) ;
#215 = COORDINATED_UNIVERSAL_TIME_OFFSET ( 1, 0, .AHEAD. ) ;
#216 = CC_DESIGN_PERSON_AND_ORGANIZATION_ASSIGNMENT ( #107, #111, ( #18 ) ) ;
#217 = ADVANCED_FACE ( 'NONE', ( #259, #4 ), #350, .F. ) ;
#218 = DATE_AND_TIME ( #110, #271 ) ;
#219 =( LENGTH_UNIT ( ) NAMED_UNIT ( * ) SI_UNIT ( .MILLI., .METRE. ) );
#220 = EDGE_CURVE ( 'NONE', #272, #272, #151, .T. ) ;
#221 = DIRECTION ( 'NONE',  ( 1.000000000000000000, 1.779997537351053725E-16, 0.000000000000000000 ) ) ;
#222 = CARTESIAN_POINT ( 'NONE',  ( 4.000000000000000888, -2.699999999999998845, 0.000000000000000000 ) ) ;
#223 = APPROVAL_STATUS ( 'not_yet_approved' ) ;
#224 = FACE_OUTER_BOUND ( 'NONE', #139, .T. ) ;
#225 = PERSON_AND_ORGANIZATION_ROLE ( 'classification_officer' ) ;
#226 = AXIS2_PLACEMENT_3D ( 'NONE', #367, #287, #144 ) ;
#227 = AXIS2_PLACEMENT_3D ( 'NONE', #199, #314, #58 ) ;
#228 = ORIENTED_EDGE ( 'NONE', *, *, #220, .F. ) ;
#229 = VERTEX_POINT ( 'NONE', #168 ) ;
#230 = DIRECTION ( 'NONE',  ( -1.000000000000000000, -2.168404344971008868E-16, -0.000000000000000000 ) ) ;
#231 = ORIENTED_EDGE ( 'NONE', *, *, #28, .T. ) ;
#232 = CARTESIAN_POINT ( 'NONE',  ( 3.500000000000001332, 1.626303258728257045E-15, 0.000000000000000000 ) ) ;
#233 = EDGE_LOOP ( 'NONE', ( #292 ) ) ;
#234 = FACE_OUTER_BOUND ( 'NONE', #99, .T. ) ;
#235 = AXIS2_PLACEMENT_3D ( 'NONE', #100, #352, #38 ) ;
#236 = ADVANCED_FACE ( 'NONE', ( #234, #210 ), #342, .T. ) ;
#237 = FACE_OUTER_BOUND ( 'NONE', #313, .T. ) ;
#238 = DIRECTION ( 'NONE',  ( 3.469446951953614189E-16, -1.000000000000000000, 0.000000000000000000 ) ) ;
#239 = DIRECTION ( 'NONE',  ( 2.168404344971008868E-16, -1.000000000000000000, 0.000000000000000000 ) ) ;
#240 = PERSON_AND_ORGANIZATION ( #27, #213 ) ;
#241 = APPROVAL ( #14, 'UNSPECIFIED' ) ;
#242 = ADVANCED_FACE ( 'NONE', ( #176, #258 ), #35, .F. ) ;
#243 = FACE_OUTER_BOUND ( 'NONE', #343, .T. ) ;
#244 = CARTESIAN_POINT ( 'NONE',  ( 3.500000000000003109, -8.299999999999997158, 0.000000000000000000 ) ) ;
#245 = EDGE_LOOP ( 'NONE', ( #73 ) ) ;
#246 = AXIS2_PLACEMENT_3D ( 'NONE', #285, #312, #276 ) ;
#247 = APPROVAL_PERSON_ORGANIZATION ( #13, #208, #82 ) ;
#248 = DIRECTION ( 'NONE',  ( -1.000000000000000000, -2.168404344971008868E-16, -0.000000000000000000 ) ) ;
#249 = PERSON_AND_ORGANIZATION_ROLE ( 'creator' ) ;
#250 = APPROVAL ( #214, 'UNSPECIFIED' ) ;
#251 = CARTESIAN_POINT ( 'NONE',  ( -3.800000000000000711, 2.500000000000000000, 0.000000000000000000 ) ) ;
#252 = CARTESIAN_POINT ( 'NONE',  ( 3.300000000000001599, 1.582935171828836868E-15, 0.000000000000000000 ) ) ;
#253 = ORIENTED_EDGE ( 'NONE', *, *, #153, .T. ) ;
#254 = CIRCLE ( 'NONE', #205, 2.500000000000000000 ) ;
#255 = AXIS2_PLACEMENT_3D ( 'NONE', #50, #113, #51 ) ;
#256 = CYLINDRICAL_SURFACE ( 'NONE', #47, 8.500000000000000000 ) ;
#257 = EDGE_LOOP ( 'NONE', ( #125 ) ) ;
#258 = FACE_OUTER_BOUND ( 'NONE', #203, .T. ) ;
#259 = FACE_OUTER_BOUND ( 'NONE', #39, .T. ) ;
#260 = VERTEX_POINT ( 'NONE', #101 ) ;
#261 = PLANE ( 'NONE',  #192 ) ;
#262 = EDGE_LOOP ( 'NONE', ( #132 ) ) ;
#263 = FACE_OUTER_BOUND ( 'NONE', #31, .T. ) ;
#264 = AXIS2_PLACEMENT_3D ( 'NONE', #180, #152, #267 ) ;
#265 = CARTESIAN_POINT ( 'NONE',  ( -4.000000000000000000, 0.000000000000000000, 0.000000000000000000 ) ) ;
#266 = FACE_OUTER_BOUND ( 'NONE', #262, .T. ) ;
#267 = DIRECTION ( 'NONE',  ( 1.927470528863118556E-16, -1.000000000000000000, 0.000000000000000000 ) ) ;
#268 = CALENDAR_DATE ( 2021, 23, 8 ) ;
#269 = DIRECTION ( 'NONE',  ( 1.000000000000000000, 2.168404344971008868E-16, 0.000000000000000000 ) ) ;
#270 = AXIS2_PLACEMENT_3D ( 'NONE', #212, #291, #115 ) ;
#271 = LOCAL_TIME ( 16, 51, 8.000000000000000000, #12 ) ;
#272 = VERTEX_POINT ( 'NONE', #141 ) ;
#273 = ORIENTED_EDGE ( 'NONE', *, *, #45, .T. ) ;
#274 =( NAMED_UNIT ( * ) PLANE_ANGLE_UNIT ( ) SI_UNIT ( $, .RADIAN. ) );
#275 = CALENDAR_DATE ( 2021, 23, 8 ) ;
#276 = DIRECTION ( 'NONE',  ( 1.927470528863118556E-16, -1.000000000000000000, 0.000000000000000000 ) ) ;
#277 = CARTESIAN_POINT ( 'NONE',  ( -3.999999999999999112, -4.500000000000000888, 0.000000000000000000 ) ) ;
#278 = CARTESIAN_POINT ( 'NONE',  ( 3.300000000000001599, 1.582935171828836868E-15, 0.000000000000000000 ) ) ;
#279 = FACE_BOUND ( 'NONE', #193, .T. ) ;
#280 = CIRCLE ( 'NONE', #270, 8.500000000000000000 ) ;
#281 = ADVANCED_FACE ( 'NONE', ( #126, #91 ), #326, .T. ) ;
#282 = ADVANCED_BREP_SHAPE_REPRESENTATION ( 'LFR 50_5-6KDD', ( #357, #255 ), #88 ) ;
#283 = PERSON_AND_ORGANIZATION ( #27, #213 ) ;
#284 = CC_DESIGN_PERSON_AND_ORGANIZATION_ASSIGNMENT ( #172, #249, ( #310 ) ) ;
#285 = CARTESIAN_POINT ( 'NONE',  ( -4.000000000000000000, 1.425776054839117271E-31, 0.000000000000000000 ) ) ;
#286 = EDGE_CURVE ( 'NONE', #78, #78, #10, .T. ) ;
#287 = DIRECTION ( 'NONE',  ( -1.000000000000000000, -2.168404344971008868E-16, 0.000000000000000000 ) ) ;
#288 = EDGE_LOOP ( 'NONE', ( #228 ) ) ;
#289 = ORIENTED_EDGE ( 'NONE', *, *, #103, .T. ) ;
#290 = AXIS2_PLACEMENT_3D ( 'NONE', #67, #142, #207 ) ;
#291 = DIRECTION ( 'NONE',  ( -1.000000000000000000, -2.168404344971008868E-16, -0.000000000000000000 ) ) ;
#292 = ORIENTED_EDGE ( 'NONE', *, *, #363, .F. ) ;
#293 = CARTESIAN_POINT ( 'NONE',  ( -3.499999999999999556, 4.500000000000002665, 0.000000000000000000 ) ) ;
#294 = DIRECTION ( 'NONE',  ( -2.168404344971008621E-16, 1.000000000000000000, 0.000000000000000000 ) ) ;
#295 = CYLINDRICAL_SURFACE ( 'NONE', #235, 4.500000000000000888 ) ;
#296 = LOCAL_TIME ( 16, 51, 8.000000000000000000, #215 ) ;
#297 = CARTESIAN_POINT ( 'NONE',  ( 3.500000000000002220, -4.499999999999999112, 0.000000000000000000 ) ) ;
#298 = CALENDAR_DATE ( 2021, 23, 8 ) ;
#299 = EDGE_LOOP ( 'NONE', ( #315 ) ) ;
#300 = DATE_AND_TIME ( #298, #70 ) ;
#301 = TOROIDAL_SURFACE ( 'NONE', #349, 8.300000000000000711, 0.2000000000000000111 ) ;
#302 = APPROVAL_ROLE ( '' ) ;
#303 = ADVANCED_FACE ( 'NONE', ( #204, #149 ), #301, .T. ) ;
#304 = CIRCLE ( 'NONE', #136, 4.500000000000000888 ) ;
#305 = AXIS2_PLACEMENT_3D ( 'NONE', #46, #163, #80 ) ;
#306 = VERTEX_POINT ( 'NONE', #222 ) ;
#307 = APPROVAL_ROLE ( '' ) ;
#308 = FACE_OUTER_BOUND ( 'NONE', #184, .T. ) ;
#309 = ADVANCED_FACE ( 'NONE', ( #95, #263 ), #295, .T. ) ;
#310 = PRODUCT_DEFINITION_FORMATION_WITH_SPECIFIED_SOURCE ( 'ANY', '', #18, .NOT_KNOWN. ) ;
#311 = CARTESIAN_POINT ( 'NONE',  ( -2.236067977499786252, -8.500000000000000000, 0.000000000000000000 ) ) ;
#312 = DIRECTION ( 'NONE',  ( -1.000000000000000000, -1.779997537351053725E-16, -0.000000000000000000 ) ) ;
#313 = EDGE_LOOP ( 'NONE', ( #209 ) ) ;
#314 = DIRECTION ( 'NONE',  ( -1.000000000000000000, -2.168404344971008868E-16, -0.000000000000000000 ) ) ;
#315 = ORIENTED_EDGE ( 'NONE', *, *, #45, .F. ) ;
#316 = DIRECTION ( 'NONE',  ( 1.000000000000000000, 2.168404344971008868E-16, 0.000000000000000000 ) ) ;
#317 = FACE_BOUND ( 'NONE', #245, .T. ) ;
#318 = EDGE_CURVE ( 'NONE', #85, #85, #127, .T. ) ;
#319 = CLOSED_SHELL ( 'NONE', ( #309, #338, #89, #135, #242, #15, #83, #217, #41, #162, #281, #236, #303, #117 ) ) ;
#320 = EDGE_LOOP ( 'NONE', ( #60 ) ) ;
#321 = FACE_OUTER_BOUND ( 'NONE', #211, .T. ) ;
#322 = PRODUCT_DEFINITION ( 'UNKNOWN', '', #310, #154 ) ;
#323 = CYLINDRICAL_SURFACE ( 'NONE', #264, 4.500000000000000888 ) ;
#324 = CC_DESIGN_DATE_AND_TIME_ASSIGNMENT ( #166, #161, ( #360 ) ) ;
#325 = DIRECTION ( 'NONE',  ( -1.000000000000000000, -2.168404344971008868E-16, -0.000000000000000000 ) ) ;
#326 = TOROIDAL_SURFACE ( 'NONE', #183, 8.299999999999998934, 0.2000000000000000111 ) ;
#327 = APPROVAL_DATE_TIME ( #218, #241 ) ;
#328 = APPLICATION_PROTOCOL_DEFINITION ( 'international standard', 'config_control_design', 1994, #335 ) ;
#329 = PERSON_AND_ORGANIZATION ( #27, #213 ) ;
#330 = VERTEX_POINT ( 'NONE', #311 ) ;
#331 = SHAPE_DEFINITION_REPRESENTATION ( #167, #282 ) ;
#332 = EDGE_LOOP ( 'NONE', ( #289 ) ) ;
#333 = APPLICATION_PROTOCOL_DEFINITION ( 'international standard', 'config_control_design', 1994, #160 ) ;
#334 = DIRECTION ( 'NONE',  ( -1.779997537351053725E-16, 1.000000000000000000, 0.000000000000000000 ) ) ;
#335 = APPLICATION_CONTEXT ( 'configuration controlled 3d designs of mechanical parts and assemblies' ) ;
#336 = DIRECTION ( 'NONE',  ( -1.000000000000000000, -2.168404344971008868E-16, -0.000000000000000000 ) ) ;
#337 = PLANE ( 'NONE',  #226 ) ;
#338 = ADVANCED_FACE ( 'NONE', ( #6, #237 ), #323, .T. ) ;
#339 = DIRECTION ( 'NONE',  ( -1.927470528863118556E-16, 1.000000000000000000, 0.000000000000000000 ) ) ;
#340 = CIRCLE ( 'NONE', #16, 4.500000000000000888 ) ;
#341 = AXIS2_PLACEMENT_3D ( 'NONE', #114, #221, #334 ) ;
#342 = TOROIDAL_SURFACE ( 'NONE', #133, 2.700000000000000178, 0.2000000000000000111 ) ;
#343 = EDGE_LOOP ( 'NONE', ( #200 ) ) ;
#344 = DIRECTION ( 'NONE',  ( -1.000000000000000000, -2.168404344971008868E-16, -0.000000000000000000 ) ) ;
#345 = EDGE_LOOP ( 'NONE', ( #120 ) ) ;
#346 = ORIENTED_EDGE ( 'NONE', *, *, #286, .F. ) ;
#347 = DIRECTION ( 'NONE',  ( 1.000000000000000000, 2.168404344971008868E-16, 0.000000000000000000 ) ) ;
#348 = ORIENTED_EDGE ( 'NONE', *, *, #103, .F. ) ;
#349 = AXIS2_PLACEMENT_3D ( 'NONE', #179, #146, #294 ) ;
#350 = PLANE ( 'NONE',  #30 ) ;
#351 = CC_DESIGN_APPROVAL ( #208, ( #310 ) ) ;
#352 = DIRECTION ( 'NONE',  ( -1.000000000000000000, -1.779997537351053725E-16, -0.000000000000000000 ) ) ;
#353 = CARTESIAN_POINT ( 'NONE',  ( 4.000000000000000000, -4.499999999999999112, 0.000000000000000000 ) ) ;
#354 = CARTESIAN_POINT ( 'NONE',  ( -3.800000000000000266, 3.559995074702116941E-17, 0.000000000000000000 ) ) ;
#355 = CARTESIAN_POINT ( 'NONE',  ( 3.500000000000001332, 1.334998153013290626E-15, 0.000000000000000000 ) ) ;
#356 = AXIS2_PLACEMENT_3D ( 'NONE', #354, #178, #148 ) ;
#357 = MANIFOLD_SOLID_BREP ( 'Fillet1', #319 ) ;
#358 = CARTESIAN_POINT ( 'NONE',  ( 3.999999999999999112, 1.423998029880842980E-15, 0.000000000000000000 ) ) ;
#359 = CIRCLE ( 'NONE', #137, 4.500000000000000888 ) ;
#360 = SECURITY_CLASSIFICATION ( '', '', #52 ) ;
#361 = AXIS2_PLACEMENT_3D ( 'NONE', #129, #124, #238 ) ;
#362 = COORDINATED_UNIVERSAL_TIME_OFFSET ( 1, 0, .AHEAD. ) ;
#363 = EDGE_CURVE ( 'NONE', #190, #190, #53, .T. ) ;
#364 = DIRECTION ( 'NONE',  ( -2.168404344971008868E-16, 1.000000000000000000, 0.000000000000000000 ) ) ;
#365 = VERTEX_POINT ( 'NONE', #19 ) ;
#366 = PERSON_AND_ORGANIZATION_ROLE ( 'design_supplier' ) ;
#367 = CARTESIAN_POINT ( 'NONE',  ( 3.500000000000000444, 4.500000000000002665, 0.000000000000000000 ) ) ;
#368 = CIRCLE ( 'NONE', #227, 8.300000000000000711 ) ;
#369 = ORIENTED_EDGE ( 'NONE', *, *, #36, .T. ) ;
ENDSEC;
END-ISO-10303-21;
