ISO-10303-21;
HEADER;
FILE_DESCRIPTION (( 'STEP AP203' ),
    '1' );
FILE_NAME ('LFR 5206-20KDD.step',
    '2021-08-23T14:51:11',
    ( '' ),
    ( '' ),
    'SwSTEP 2.0',
    'SolidWorks 2020',
    '' );
FILE_SCHEMA (( 'CONFIG_CONTROL_DESIGN' ));
ENDSEC;

DATA;
#1 = VERTEX_POINT ( 'NONE', #112 ) ;
#2 = ORIENTED_EDGE ( 'NONE', *, *, #245, .F. ) ;
#3 = DESIGN_CONTEXT ( 'detailed design', #199, 'design' ) ;
#4 = DIRECTION ( 'NONE',  ( 0.000000000000000000, 0.000000000000000000, 1.000000000000000000 ) ) ;
#5 = CARTESIAN_POINT ( 'NONE',  ( -12.29999999999999893, 1.102182119232623088E-16, 0.000000000000000000 ) ) ;
#6 = ORIENTED_EDGE ( 'NONE', *, *, #233, .T. ) ;
#7 = TOROIDAL_SURFACE ( 'NONE', #186, 35.39999999999998437, 0.5999999999999999778 ) ;
#8 = FACE_OUTER_BOUND ( 'NONE', #342, .T. ) ;
#9 = CIRCLE ( 'NONE', #321, 35.99999999999999289 ) ;
#10 = ADVANCED_FACE ( 'NONE', ( #264, #335 ), #135, .T. ) ;
#11 = CYLINDRICAL_SURFACE ( 'NONE', #78, 12.50000000000000000 ) ;
#12 = APPROVAL_PERSON_ORGANIZATION ( #236, #299, #17 ) ;
#13 = FACE_OUTER_BOUND ( 'NONE', #216, .T. ) ;
#14 = APPROVAL_STATUS ( 'not_yet_approved' ) ;
#15 = CC_DESIGN_DATE_AND_TIME_ASSIGNMENT ( #185, #150, ( #242 ) ) ;
#16 = AXIS2_PLACEMENT_3D ( 'NONE', #297, #39, #149 ) ;
#17 = APPROVAL_ROLE ( '' ) ;
#18 = DIRECTION ( 'NONE',  ( 0.000000000000000000, 0.000000000000000000, 1.000000000000000000 ) ) ;
#19 = APPROVAL_STATUS ( 'not_yet_approved' ) ;
#20 = DIRECTION ( 'NONE',  ( 1.541976423090495140E-16, -1.000000000000000000, 0.000000000000000000 ) ) ;
#21 = ADVANCED_FACE ( 'NONE', ( #119, #172 ), #139, .T. ) ;
#22 = PERSON_AND_ORGANIZATION ( #312, #136 ) ;
#23 = CARTESIAN_POINT ( 'NONE',  ( -11.90000000000000036, 22.50000000000000355, 0.000000000000000000 ) ) ;
#24 = TOROIDAL_SURFACE ( 'NONE', #308, 35.39999999999998437, 0.5999999999999999778 ) ;
#25 = EDGE_LOOP ( 'NONE', ( #2 ) ) ;
#26 =( NAMED_UNIT ( * ) SI_UNIT ( $, .STERADIAN. ) SOLID_ANGLE_UNIT ( ) );
#27 = EDGE_LOOP ( 'NONE', ( #34 ) ) ;
#28 = EDGE_LOOP ( 'NONE', ( #143 ) ) ;
#29 = CARTESIAN_POINT ( 'NONE',  ( 0.000000000000000000, 0.000000000000000000, 0.000000000000000000 ) ) ;
#30 = CARTESIAN_POINT ( 'NONE',  ( -12.30000000000000071, 12.50000000000000000, 0.000000000000000000 ) ) ;
#31 = ORIENTED_EDGE ( 'NONE', *, *, #354, .T. ) ;
#32 = AXIS2_PLACEMENT_3D ( 'NONE', #274, #158, #18 ) ;
#33 = FACE_BOUND ( 'NONE', #314, .T. ) ;
#34 = ORIENTED_EDGE ( 'NONE', *, *, #99, .F. ) ;
#35 = FACE_OUTER_BOUND ( 'NONE', #346, .T. ) ;
#36 = DIRECTION ( 'NONE',  ( 0.000000000000000000, 0.000000000000000000, -1.000000000000000000 ) ) ;
#37 = EDGE_CURVE ( 'NONE', #46, #46, #213, .T. ) ;
#38 = DIRECTION ( 'NONE',  ( -1.000000000000000000, -0.000000000000000000, -0.000000000000000000 ) ) ;
#39 = DIRECTION ( 'NONE',  ( 1.000000000000000000, 1.836970198721029934E-16, 0.000000000000000000 ) ) ;
#40 = PERSON_AND_ORGANIZATION ( #312, #136 ) ;
#41 = AXIS2_PLACEMENT_3D ( 'NONE', #5, #130, #200 ) ;
#42 = CC_DESIGN_PERSON_AND_ORGANIZATION_ASSIGNMENT ( #353, #268, ( #242 ) ) ;
#43 = CIRCLE ( 'NONE', #125, 22.50000000000000000 ) ;
#44 = DIRECTION ( 'NONE',  ( -1.000000000000000000, -1.836970198721029934E-16, -0.000000000000000000 ) ) ;
#45 = DIRECTION ( 'NONE',  ( 1.836970198721029934E-16, -1.000000000000000000, 0.000000000000000000 ) ) ;
#46 = VERTEX_POINT ( 'NONE', #137 ) ;
#47 = FACE_OUTER_BOUND ( 'NONE', #69, .T. ) ;
#48 = ORIENTED_EDGE ( 'NONE', *, *, #82, .T. ) ;
#49 = CIRCLE ( 'NONE', #266, 12.50000000000000000 ) ;
#50 = ORIENTED_EDGE ( 'NONE', *, *, #280, .T. ) ;
#51 = DIRECTION ( 'NONE',  ( 1.836970198721029934E-16, -1.000000000000000000, 0.000000000000000000 ) ) ;
#52 = ORIENTED_EDGE ( 'NONE', *, *, #164, .T. ) ;
#53 = DIRECTION ( 'NONE',  ( 0.000000000000000000, 0.000000000000000000, -1.000000000000000000 ) ) ;
#54 = CARTESIAN_POINT ( 'NONE',  ( -12.89999999999999503, -22.50000000000000000, 0.000000000000000000 ) ) ;
#55 = AXIS2_PLACEMENT_3D ( 'NONE', #259, #181, #4 ) ;
#56 = AXIS2_PLACEMENT_3D ( 'NONE', #72, #44, #359 ) ;
#57 = DIRECTION ( 'NONE',  ( 0.000000000000000000, 0.000000000000000000, 1.000000000000000000 ) ) ;
#58 = EDGE_LOOP ( 'NONE', ( #284 ) ) ;
#59 = DIRECTION ( 'NONE',  ( 1.000000000000000000, 0.000000000000000000, 0.000000000000000000 ) ) ;
#60 = DATE_AND_TIME ( #68, #367 ) ;
#61 = DIRECTION ( 'NONE',  ( 1.387778780781445676E-16, -1.000000000000000000, 0.000000000000000000 ) ) ;
#62 = APPROVAL_STATUS ( 'not_yet_approved' ) ;
#63 = UNCERTAINTY_MEASURE_WITH_UNIT (LENGTH_MEASURE( 1.000000000000000082E-05 ), #305, 'distance_accuracy_value', 'NONE');
#64 = AXIS2_PLACEMENT_3D ( 'NONE', #228, #128, #51 ) ;
#65 = FACE_OUTER_BOUND ( 'NONE', #252, .T. ) ;
#66 = AXIS2_PLACEMENT_3D ( 'NONE', #229, #38, #88 ) ;
#67 = ADVANCED_FACE ( 'NONE', ( #327, #276 ), #188, .T. ) ;
#68 = CALENDAR_DATE ( 2021, 23, 8 ) ;
#69 = EDGE_LOOP ( 'NONE', ( #368 ) ) ;
#70 = APPROVAL_DATE_TIME ( #77, #179 ) ;
#71 = CIRCLE ( 'NONE', #41, 12.50000000000000000 ) ;
#72 = CARTESIAN_POINT ( 'NONE',  ( 12.89999999999999858, 4.739383112700257807E-15, 0.000000000000000000 ) ) ;
#73 = PERSON_AND_ORGANIZATION_ROLE ( 'classification_officer' ) ;
#74 = FACE_OUTER_BOUND ( 'NONE', #25, .T. ) ;
#75 = ORIENTED_EDGE ( 'NONE', *, *, #271, .T. ) ;
#76 = CC_DESIGN_PERSON_AND_ORGANIZATION_ASSIGNMENT ( #356, #73, ( #151 ) ) ;
#77 = DATE_AND_TIME ( #210, #108 ) ;
#78 = AXIS2_PLACEMENT_3D ( 'NONE', #173, #362, #61 ) ;
#79 = CARTESIAN_POINT ( 'NONE',  ( 11.90000000000000036, 0.000000000000000000, 35.39999999999998437 ) ) ;
#80 = DIRECTION ( 'NONE',  ( 0.000000000000000000, 0.000000000000000000, 1.000000000000000000 ) ) ;
#81 = TOROIDAL_SURFACE ( 'NONE', #201, 13.10000000000000142, 0.5999999999999999778 ) ;
#82 = EDGE_CURVE ( 'NONE', #163, #163, #131, .T. ) ;
#83 = VERTEX_POINT ( 'NONE', #256 ) ;
#84 = ORIENTED_EDGE ( 'NONE', *, *, #37, .T. ) ;
#85 = DIRECTION ( 'NONE',  ( -1.000000000000000000, -0.000000000000000000, -0.000000000000000000 ) ) ;
#86 = VERTEX_POINT ( 'NONE', #260 ) ;
#87 = CARTESIAN_POINT ( 'NONE',  ( -12.89999999999999858, 0.000000000000000000, 0.000000000000000000 ) ) ;
#88 = DIRECTION ( 'NONE',  ( 0.000000000000000000, 0.000000000000000000, -1.000000000000000000 ) ) ;
#89 = EDGE_LOOP ( 'NONE', ( #75 ) ) ;
#90 = DIRECTION ( 'NONE',  ( 1.000000000000000000, 0.000000000000000000, 0.000000000000000000 ) ) ;
#91 = PERSON_AND_ORGANIZATION_ROLE ( 'design_owner' ) ;
#92 = ORIENTED_EDGE ( 'NONE', *, *, #82, .F. ) ;
#93 = DIRECTION ( 'NONE',  ( 1.000000000000000000, 1.836970198721029934E-16, 0.000000000000000000 ) ) ;
#94 = DIRECTION ( 'NONE',  ( 0.000000000000000000, 0.000000000000000000, 1.000000000000000000 ) ) ;
#95 = CIRCLE ( 'NONE', #55, 35.99999999999999289 ) ;
#96 = AXIS2_PLACEMENT_3D ( 'NONE', #190, #306, #45 ) ;
#97 = PRODUCT_RELATED_PRODUCT_CATEGORY ( 'detail', '', ( #290 ) ) ;
#98 = APPLICATION_CONTEXT ( 'configuration controlled 3d designs of mechanical parts and assemblies' ) ;
#99 = EDGE_CURVE ( 'NONE', #278, #278, #241, .T. ) ;
#100 = COORDINATED_UNIVERSAL_TIME_OFFSET ( 1, 0, .AHEAD. ) ;
#101 =( NAMED_UNIT ( * ) PLANE_ANGLE_UNIT ( ) SI_UNIT ( $, .RADIAN. ) );
#102 = DATE_AND_TIME ( #307, #325 ) ;
#103 = APPROVAL_DATE_TIME ( #249, #230 ) ;
#104 = DIRECTION ( 'NONE',  ( 1.387778780781445676E-16, -1.000000000000000000, 0.000000000000000000 ) ) ;
#105 = CC_DESIGN_PERSON_AND_ORGANIZATION_ASSIGNMENT ( #161, #333, ( #129 ) ) ;
#106 = COORDINATED_UNIVERSAL_TIME_OFFSET ( 1, 0, .AHEAD. ) ;
#107 = ORIENTED_EDGE ( 'NONE', *, *, #354, .F. ) ;
#108 = LOCAL_TIME ( 16, 51, 11.00000000000000000, #100 ) ;
#109 = VERTEX_POINT ( 'NONE', #222 ) ;
#110 = DIRECTION ( 'NONE',  ( 1.541976423090495140E-16, -1.000000000000000000, 0.000000000000000000 ) ) ;
#111 = DIRECTION ( 'NONE',  ( 0.000000000000000000, 0.000000000000000000, 1.000000000000000000 ) ) ;
#112 = CARTESIAN_POINT ( 'NONE',  ( 8.660254037844380193, 0.000000000000000000, 35.99999999999999289 ) ) ;
#113 = ORIENTED_EDGE ( 'NONE', *, *, #288, .F. ) ;
#114 = PLANE ( 'NONE',  #64 ) ;
#115 = CARTESIAN_POINT ( 'NONE',  ( -12.29999999999999893, 1.102182119232624937E-16, 0.000000000000000000 ) ) ;
#116 = EDGE_LOOP ( 'NONE', ( #340 ) ) ;
#117 = AXIS2_PLACEMENT_3D ( 'NONE', #293, #320, #57 ) ;
#118 = AXIS2_PLACEMENT_3D ( 'NONE', #298, #155, #121 ) ;
#119 = FACE_OUTER_BOUND ( 'NONE', #58, .T. ) ;
#120 = DIRECTION ( 'NONE',  ( -1.000000000000000000, 0.000000000000000000, -0.000000000000000000 ) ) ;
#121 = DIRECTION ( 'NONE',  ( 1.000000000000000000, 0.000000000000000000, 0.000000000000000000 ) ) ;
#122 = FACE_OUTER_BOUND ( 'NONE', #223, .T. ) ;
#123 = COORDINATED_UNIVERSAL_TIME_OFFSET ( 1, 0, .AHEAD. ) ;
#124 = EDGE_LOOP ( 'NONE', ( #50 ) ) ;
#125 = AXIS2_PLACEMENT_3D ( 'NONE', #254, #215, #20 ) ;
#126 = ADVANCED_FACE ( 'NONE', ( #13, #157 ), #189, .T. ) ;
#127 = APPROVAL_ROLE ( '' ) ;
#128 = DIRECTION ( 'NONE',  ( -1.000000000000000000, -1.836970198721029934E-16, 0.000000000000000000 ) ) ;
#129 = PRODUCT_DEFINITION_FORMATION_WITH_SPECIFIED_SOURCE ( 'ANY', '', #290, .NOT_KNOWN. ) ;
#130 = DIRECTION ( 'NONE',  ( -1.000000000000000000, -1.836970198721029934E-16, -0.000000000000000000 ) ) ;
#131 = CIRCLE ( 'NONE', #32, 22.50000000000000000 ) ;
#132 = EDGE_LOOP ( 'NONE', ( #113 ) ) ;
#133 = ORIENTED_EDGE ( 'NONE', *, *, #280, .F. ) ;
#134 = DIRECTION ( 'NONE',  ( 1.000000000000000000, 1.836970198721029934E-16, 0.000000000000000000 ) ) ;
#135 = CYLINDRICAL_SURFACE ( 'NONE', #156, 22.50000000000000000 ) ;
#136 = ORGANIZATION ( 'UNSPECIFIED', 'UNSPECIFIED', '' ) ;
#137 = CARTESIAN_POINT ( 'NONE',  ( 12.90000000000000213, -22.49999999999999645, 0.000000000000000000 ) ) ;
#138 = EDGE_LOOP ( 'NONE', ( #107 ) ) ;
#139 = CYLINDRICAL_SURFACE ( 'NONE', #208, 35.99999999999999289 ) ;
#140 = ADVANCED_FACE ( 'NONE', ( #35, #8 ), #148, .T. ) ;
#141 = DIRECTION ( 'NONE',  ( -1.000000000000000000, -0.000000000000000000, -0.000000000000000000 ) ) ;
#142 = DIRECTION ( 'NONE',  ( -1.836970198721029934E-16, 1.000000000000000000, 0.000000000000000000 ) ) ;
#143 = ORIENTED_EDGE ( 'NONE', *, *, #348, .T. ) ;
#144 = CARTESIAN_POINT ( 'NONE',  ( 12.29999999999999538, 4.629164900776994438E-15, 0.000000000000000000 ) ) ;
#145 = ORIENTED_EDGE ( 'NONE', *, *, #282, .T. ) ;
#146 = CARTESIAN_POINT ( 'NONE',  ( 11.90000000000000036, 0.000000000000000000, 0.000000000000000000 ) ) ;
#147 = CIRCLE ( 'NONE', #207, 13.10000000000000142 ) ;
#148 = CYLINDRICAL_SURFACE ( 'NONE', #152, 22.50000000000000000 ) ;
#149 = DIRECTION ( 'NONE',  ( -1.836970198721029934E-16, 1.000000000000000000, 0.000000000000000000 ) ) ;
#150 = DATE_TIME_ROLE ( 'creation_date' ) ;
#151 = SECURITY_CLASSIFICATION ( '', '', #168 ) ;
#152 = AXIS2_PLACEMENT_3D ( 'NONE', #217, #267, #347 ) ;
#153 = CC_DESIGN_PERSON_AND_ORGANIZATION_ASSIGNMENT ( #40, #91, ( #290 ) ) ;
#154 = CC_DESIGN_APPROVAL ( #230, ( #151 ) ) ;
#155 = DIRECTION ( 'NONE',  ( 0.000000000000000000, 0.000000000000000000, 1.000000000000000000 ) ) ;
#156 = AXIS2_PLACEMENT_3D ( 'NONE', #255, #176, #110 ) ;
#157 = FACE_OUTER_BOUND ( 'NONE', #89, .T. ) ;
#158 = DIRECTION ( 'NONE',  ( -1.000000000000000000, -0.000000000000000000, -0.000000000000000000 ) ) ;
#159 = DIRECTION ( 'NONE',  ( 1.000000000000000000, 0.000000000000000000, 0.000000000000000000 ) ) ;
#160 = EDGE_LOOP ( 'NONE', ( #167 ) ) ;
#161 = PERSON_AND_ORGANIZATION ( #312, #136 ) ;
#162 = DIRECTION ( 'NONE',  ( 1.000000000000000000, 0.000000000000000000, 0.000000000000000000 ) ) ;
#163 = VERTEX_POINT ( 'NONE', #334 ) ;
#164 = EDGE_CURVE ( 'NONE', #313, #313, #326, .T. ) ;
#165 = AXIS2_PLACEMENT_3D ( 'NONE', #316, #159, #218 ) ;
#166 = AXIS2_PLACEMENT_3D ( 'NONE', #231, #120, #341 ) ;
#167 = ORIENTED_EDGE ( 'NONE', *, *, #233, .F. ) ;
#168 = SECURITY_CLASSIFICATION_LEVEL ( 'unclassified' ) ;
#169 = EDGE_LOOP ( 'NONE', ( #243 ) ) ;
#170 = CARTESIAN_POINT ( 'NONE',  ( -11.30000000000000071, 0.000000000000000000, -35.99999999999999289 ) ) ;
#171 = EDGE_LOOP ( 'NONE', ( #240 ) ) ;
#172 = FACE_OUTER_BOUND ( 'NONE', #132, .T. ) ;
#173 = CARTESIAN_POINT ( 'NONE',  ( -12.90000000000000213, 0.000000000000000000, 0.000000000000000000 ) ) ;
#174 = CIRCLE ( 'NONE', #165, 22.50000000000000000 ) ;
#175 = VERTEX_POINT ( 'NONE', #54 ) ;
#176 = DIRECTION ( 'NONE',  ( -1.000000000000000000, -1.836970198721029934E-16, -0.000000000000000000 ) ) ;
#177 = CARTESIAN_POINT ( 'NONE',  ( 11.30000000000000071, 0.000000000000000000, 0.000000000000000000 ) ) ;
#178 = ORIENTED_EDGE ( 'NONE', *, *, #192, .F. ) ;
#179 = APPROVAL ( #14, 'UNSPECIFIED' ) ;
#180 = FACE_OUTER_BOUND ( 'NONE', #261, .T. ) ;
#181 = DIRECTION ( 'NONE',  ( -1.000000000000000000, -0.000000000000000000, -0.000000000000000000 ) ) ;
#182 = ADVANCED_FACE ( 'NONE', ( #286, #33 ), #330, .F. ) ;
#183 = ADVANCED_BREP_SHAPE_REPRESENTATION ( 'LFR 5206-20KDD', ( #227, #118 ), #194 ) ;
#184 = PLANE ( 'NONE',  #16 ) ;
#185 = DATE_AND_TIME ( #351, #352 ) ;
#186 = AXIS2_PLACEMENT_3D ( 'NONE', #191, #195, #251 ) ;
#187 = APPROVAL_PERSON_ORGANIZATION ( #270, #179, #244 ) ;
#188 = TOROIDAL_SURFACE ( 'NONE', #96, 13.10000000000000142, 0.5999999999999999778 ) ;
#189 = CYLINDRICAL_SURFACE ( 'NONE', #296, 35.99999999999999289 ) ;
#190 = CARTESIAN_POINT ( 'NONE',  ( 12.29999999999999893, 4.629164900776995227E-15, 0.000000000000000000 ) ) ;
#191 = CARTESIAN_POINT ( 'NONE',  ( 11.30000000000000071, 0.000000000000000000, 0.000000000000000000 ) ) ;
#192 = EDGE_CURVE ( 'NONE', #310, #310, #9, .T. ) ;
#193 = SHAPE_DEFINITION_REPRESENTATION ( #225, #183 ) ;
#194 =( GEOMETRIC_REPRESENTATION_CONTEXT ( 3 ) GLOBAL_UNCERTAINTY_ASSIGNED_CONTEXT ( ( #63 ) ) GLOBAL_UNIT_ASSIGNED_CONTEXT ( ( #305, #101, #26 ) ) REPRESENTATION_CONTEXT ( 'NONE', 'WORKASPACE' ) );
#195 = DIRECTION ( 'NONE',  ( -1.000000000000000000, -0.000000000000000000, -0.000000000000000000 ) ) ;
#196 = VERTEX_POINT ( 'NONE', #30 ) ;
#197 = FACE_OUTER_BOUND ( 'NONE', #365, .T. ) ;
#198 = DIRECTION ( 'NONE',  ( 1.541976423090495140E-16, -1.000000000000000000, 0.000000000000000000 ) ) ;
#199 = APPLICATION_CONTEXT ( 'configuration controlled 3d designs of mechanical parts and assemblies' ) ;
#200 = DIRECTION ( 'NONE',  ( -1.387778780781445676E-16, 1.000000000000000000, 0.000000000000000000 ) ) ;
#201 = AXIS2_PLACEMENT_3D ( 'NONE', #115, #324, #142 ) ;
#202 = DIRECTION ( 'NONE',  ( 0.000000000000000000, 0.000000000000000000, -1.000000000000000000 ) ) ;
#203 = APPLICATION_PROTOCOL_DEFINITION ( 'international standard', 'config_control_design', 1994, #199 ) ;
#204 = ADVANCED_FACE ( 'NONE', ( #250, #292 ), #235, .F. ) ;
#205 = FACE_OUTER_BOUND ( 'NONE', #257, .T. ) ;
#206 = DIRECTION ( 'NONE',  ( 1.000000000000000000, 0.000000000000000000, 0.000000000000000000 ) ) ;
#207 = AXIS2_PLACEMENT_3D ( 'NONE', #219, #134, #331 ) ;
#208 = AXIS2_PLACEMENT_3D ( 'NONE', #87, #234, #80 ) ;
#209 = AXIS2_PLACEMENT_3D ( 'NONE', #23, #206, #53 ) ;
#210 = CALENDAR_DATE ( 2021, 23, 8 ) ;
#211 = CC_DESIGN_SECURITY_CLASSIFICATION ( #151, ( #129 ) ) ;
#212 = DATE_TIME_ROLE ( 'classification_date' ) ;
#213 = CIRCLE ( 'NONE', #369, 22.50000000000000000 ) ;
#214 = CC_DESIGN_PERSON_AND_ORGANIZATION_ASSIGNMENT ( #22, #329, ( #129 ) ) ;
#215 = DIRECTION ( 'NONE',  ( -1.000000000000000000, -1.836970198721029934E-16, -0.000000000000000000 ) ) ;
#216 = EDGE_LOOP ( 'NONE', ( #291 ) ) ;
#217 = CARTESIAN_POINT ( 'NONE',  ( -12.90000000000000213, 0.000000000000000000, 0.000000000000000000 ) ) ;
#218 = DIRECTION ( 'NONE',  ( 0.000000000000000000, 0.000000000000000000, -1.000000000000000000 ) ) ;
#219 = CARTESIAN_POINT ( 'NONE',  ( -12.89999999999999858, 8.425943506694156857E-31, 0.000000000000000000 ) ) ;
#220 = EDGE_LOOP ( 'NONE', ( #349 ) ) ;
#221 = CC_DESIGN_APPROVAL ( #299, ( #242 ) ) ;
#222 = CARTESIAN_POINT ( 'NONE',  ( 11.30000000000000071, 0.000000000000000000, 35.99999999999999289 ) ) ;
#223 = EDGE_LOOP ( 'NONE', ( #6 ) ) ;
#224 = VERTEX_POINT ( 'NONE', #337 ) ;
#225 = PRODUCT_DEFINITION_SHAPE ( 'NONE', 'NONE',  #242 ) ;
#226 = ORIENTED_EDGE ( 'NONE', *, *, #37, .F. ) ;
#227 = MANIFOLD_SOLID_BREP ( 'Fillet1', #317 ) ;
#228 = CARTESIAN_POINT ( 'NONE',  ( 12.89999999999999503, 22.50000000000000355, 0.000000000000000000 ) ) ;
#229 = CARTESIAN_POINT ( 'NONE',  ( -11.90000000000000036, 0.000000000000000000, 0.000000000000000000 ) ) ;
#230 = APPROVAL ( #19, 'UNSPECIFIED' ) ;
#231 = CARTESIAN_POINT ( 'NONE',  ( 11.90000000000000036, 22.50000000000000355, 0.000000000000000000 ) ) ;
#232 = AXIS2_PLACEMENT_3D ( 'NONE', #29, #141, #111 ) ;
#233 = EDGE_CURVE ( 'NONE', #283, #283, #49, .T. ) ;
#234 = DIRECTION ( 'NONE',  ( -1.000000000000000000, -0.000000000000000000, -0.000000000000000000 ) ) ;
#235 = PLANE ( 'NONE',  #209 ) ;
#236 = PERSON_AND_ORGANIZATION ( #312, #136 ) ;
#237 = DIRECTION ( 'NONE',  ( 0.000000000000000000, 0.000000000000000000, 1.000000000000000000 ) ) ;
#238 = ADVANCED_FACE ( 'NONE', ( #205, #322 ), #81, .T. ) ;
#239 = CIRCLE ( 'NONE', #285, 35.99999999999999289 ) ;
#240 = ORIENTED_EDGE ( 'NONE', *, *, #99, .T. ) ;
#241 = CIRCLE ( 'NONE', #56, 13.10000000000000142 ) ;
#242 = PRODUCT_DEFINITION ( 'UNKNOWN', '', #129, #3 ) ;
#243 = ORIENTED_EDGE ( 'NONE', *, *, #358, .T. ) ;
#244 = APPROVAL_ROLE ( '' ) ;
#245 = EDGE_CURVE ( 'NONE', #109, #109, #239, .T. ) ;
#246 = CC_DESIGN_APPROVAL ( #179, ( #129 ) ) ;
#247 = AXIS2_PLACEMENT_3D ( 'NONE', #146, #162, #94 ) ;
#248 = EDGE_LOOP ( 'NONE', ( #52 ) ) ;
#249 = DATE_AND_TIME ( #357, #328 ) ;
#250 = FACE_OUTER_BOUND ( 'NONE', #124, .T. ) ;
#251 = DIRECTION ( 'NONE',  ( 0.000000000000000000, 0.000000000000000000, 1.000000000000000000 ) ) ;
#252 = EDGE_LOOP ( 'NONE', ( #272 ) ) ;
#253 = CARTESIAN_POINT ( 'NONE',  ( -11.90000000000000036, 1.836970198721031413E-16, -22.50000000000000000 ) ) ;
#254 = CARTESIAN_POINT ( 'NONE',  ( -12.89999999999999858, 7.592533899725655098E-31, 0.000000000000000000 ) ) ;
#255 = CARTESIAN_POINT ( 'NONE',  ( -12.90000000000000213, 0.000000000000000000, 0.000000000000000000 ) ) ;
#256 = CARTESIAN_POINT ( 'NONE',  ( -8.660254037844380193, 0.000000000000000000, 35.99999999999999289 ) ) ;
#257 = EDGE_LOOP ( 'NONE', ( #355 ) ) ;
#258 = FACE_OUTER_BOUND ( 'NONE', #304, .T. ) ;
#259 = CARTESIAN_POINT ( 'NONE',  ( -8.660254037844380193, 0.000000000000000000, 0.000000000000000000 ) ) ;
#260 = CARTESIAN_POINT ( 'NONE',  ( -12.90000000000000036, 13.10000000000000142, 0.000000000000000000 ) ) ;
#261 = EDGE_LOOP ( 'NONE', ( #31 ) ) ;
#262 = FACE_BOUND ( 'NONE', #28, .T. ) ;
#263 = ADVANCED_FACE ( 'NONE', ( #122, #197 ), #11, .F. ) ;
#264 = FACE_OUTER_BOUND ( 'NONE', #138, .T. ) ;
#265 = DIRECTION ( 'NONE',  ( 0.000000000000000000, 0.000000000000000000, 1.000000000000000000 ) ) ;
#266 = AXIS2_PLACEMENT_3D ( 'NONE', #144, #93, #104 ) ;
#267 = DIRECTION ( 'NONE',  ( -1.000000000000000000, -1.836970198721029934E-16, -0.000000000000000000 ) ) ;
#268 = PERSON_AND_ORGANIZATION_ROLE ( 'creator' ) ;
#269 = FACE_OUTER_BOUND ( 'NONE', #116, .T. ) ;
#270 = PERSON_AND_ORGANIZATION ( #312, #136 ) ;
#271 = EDGE_CURVE ( 'NONE', #83, #83, #95, .T. ) ;
#272 = ORIENTED_EDGE ( 'NONE', *, *, #288, .T. ) ;
#273 = MECHANICAL_CONTEXT ( 'NONE', #98, 'mechanical' ) ;
#274 = CARTESIAN_POINT ( 'NONE',  ( 11.90000000000000036, 4.555686092828155084E-15, 0.000000000000000000 ) ) ;
#275 = PERSON_AND_ORGANIZATION ( #312, #136 ) ;
#276 = FACE_OUTER_BOUND ( 'NONE', #27, .T. ) ;
#277 = DIRECTION ( 'NONE',  ( -1.000000000000000000, -0.000000000000000000, -0.000000000000000000 ) ) ;
#278 = VERTEX_POINT ( 'NONE', #363 ) ;
#279 = COORDINATED_UNIVERSAL_TIME_OFFSET ( 1, 0, .AHEAD. ) ;
#280 = EDGE_CURVE ( 'NONE', #224, #224, #319, .T. ) ;
#281 = EDGE_LOOP ( 'NONE', ( #133 ) ) ;
#282 = EDGE_CURVE ( 'NONE', #196, #196, #71, .T. ) ;
#283 = VERTEX_POINT ( 'NONE', #366 ) ;
#284 = ORIENTED_EDGE ( 'NONE', *, *, #245, .T. ) ;
#285 = AXIS2_PLACEMENT_3D ( 'NONE', #177, #85, #237 ) ;
#286 = FACE_OUTER_BOUND ( 'NONE', #248, .T. ) ;
#287 = VERTEX_POINT ( 'NONE', #253 ) ;
#288 = EDGE_CURVE ( 'NONE', #1, #1, #294, .T. ) ;
#289 = FACE_OUTER_BOUND ( 'NONE', #281, .T. ) ;
#290 = PRODUCT ( 'LFR 5206-20KDD', 'LFR 5206-20KDD', '', ( #273 ) ) ;
#291 = ORIENTED_EDGE ( 'NONE', *, *, #192, .T. ) ;
#292 = FACE_BOUND ( 'NONE', #169, .T. ) ;
#293 = CARTESIAN_POINT ( 'NONE',  ( 8.660254037844380193, 0.000000000000000000, 0.000000000000000000 ) ) ;
#294 = CIRCLE ( 'NONE', #117, 35.99999999999999289 ) ;
#295 = APPROVAL_DATE_TIME ( #60, #299 ) ;
#296 = AXIS2_PLACEMENT_3D ( 'NONE', #303, #277, #265 ) ;
#297 = CARTESIAN_POINT ( 'NONE',  ( -12.90000000000000036, 12.50000000000000000, 0.000000000000000000 ) ) ;
#298 = CARTESIAN_POINT ( 'NONE',  ( 0.000000000000000000, 0.000000000000000000, 0.000000000000000000 ) ) ;
#299 = APPROVAL ( #62, 'UNSPECIFIED' ) ;
#300 = ADVANCED_FACE ( 'NONE', ( #350, #289 ), #24, .T. ) ;
#301 = ORIENTED_EDGE ( 'NONE', *, *, #282, .F. ) ;
#302 = APPLICATION_PROTOCOL_DEFINITION ( 'international standard', 'config_control_design', 1994, #98 ) ;
#303 = CARTESIAN_POINT ( 'NONE',  ( -12.89999999999999858, 0.000000000000000000, 0.000000000000000000 ) ) ;
#304 = EDGE_LOOP ( 'NONE', ( #226 ) ) ;
#305 =( LENGTH_UNIT ( ) NAMED_UNIT ( * ) SI_UNIT ( .MILLI., .METRE. ) );
#306 = DIRECTION ( 'NONE',  ( -1.000000000000000000, -1.836970198721029934E-16, -0.000000000000000000 ) ) ;
#307 = CALENDAR_DATE ( 2021, 23, 8 ) ;
#308 = AXIS2_PLACEMENT_3D ( 'NONE', #344, #90, #202 ) ;
#309 = ADVANCED_FACE ( 'NONE', ( #262, #180 ), #184, .F. ) ;
#310 = VERTEX_POINT ( 'NONE', #170 ) ;
#311 = CARTESIAN_POINT ( 'NONE',  ( 12.89999999999999858, 4.739383112700257807E-15, 0.000000000000000000 ) ) ;
#312 = PERSON ( 'UNSPECIFIED', 'UNSPECIFIED', 'UNSPECIFIED', ('UNSPECIFIED'), ('UNSPECIFIED'), ('UNSPECIFIED') ) ;
#313 = VERTEX_POINT ( 'NONE', #79 ) ;
#314 = EDGE_LOOP ( 'NONE', ( #48 ) ) ;
#315 = CARTESIAN_POINT ( 'NONE',  ( -11.30000000000000071, 0.000000000000000000, 0.000000000000000000 ) ) ;
#316 = CARTESIAN_POINT ( 'NONE',  ( -11.90000000000000036, 1.836970198721031413E-16, 0.000000000000000000 ) ) ;
#317 = CLOSED_SHELL ( 'NONE', ( #10, #140, #309, #339, #263, #332, #126, #204, #182, #21, #361, #67, #300, #238 ) ) ;
#318 = DIRECTION ( 'NONE',  ( -1.000000000000000000, -1.836970198721029934E-16, -0.000000000000000000 ) ) ;
#319 = CIRCLE ( 'NONE', #66, 35.39999999999998437 ) ;
#320 = DIRECTION ( 'NONE',  ( -1.000000000000000000, -0.000000000000000000, -0.000000000000000000 ) ) ;
#321 = AXIS2_PLACEMENT_3D ( 'NONE', #315, #59, #36 ) ;
#322 = FACE_OUTER_BOUND ( 'NONE', #364, .T. ) ;
#323 = COORDINATED_UNIVERSAL_TIME_OFFSET ( 1, 0, .AHEAD. ) ;
#324 = DIRECTION ( 'NONE',  ( 1.000000000000000000, 1.836970198721029934E-16, 0.000000000000000000 ) ) ;
#325 = LOCAL_TIME ( 16, 51, 11.00000000000000000, #279 ) ;
#326 = CIRCLE ( 'NONE', #247, 35.39999999999998437 ) ;
#327 = FACE_OUTER_BOUND ( 'NONE', #160, .T. ) ;
#328 = LOCAL_TIME ( 16, 51, 11.00000000000000000, #106 ) ;
#329 = PERSON_AND_ORGANIZATION_ROLE ( 'creator' ) ;
#330 = PLANE ( 'NONE',  #166 ) ;
#331 = DIRECTION ( 'NONE',  ( -1.324216393875425095E-16, 1.000000000000000000, 0.000000000000000000 ) ) ;
#332 = ADVANCED_FACE ( 'NONE', ( #269, #65 ), #343, .F. ) ;
#333 = PERSON_AND_ORGANIZATION_ROLE ( 'design_supplier' ) ;
#334 = CARTESIAN_POINT ( 'NONE',  ( 11.90000000000000036, 4.555686092828155084E-15, 22.50000000000000000 ) ) ;
#335 = FACE_OUTER_BOUND ( 'NONE', #220, .T. ) ;
#336 = FACE_BOUND ( 'NONE', #171, .T. ) ;
#337 = CARTESIAN_POINT ( 'NONE',  ( -11.90000000000000036, 0.000000000000000000, -35.39999999999998437 ) ) ;
#338 = EDGE_LOOP ( 'NONE', ( #178 ) ) ;
#339 = ADVANCED_FACE ( 'NONE', ( #336, #258 ), #114, .F. ) ;
#340 = ORIENTED_EDGE ( 'NONE', *, *, #271, .F. ) ;
#341 = DIRECTION ( 'NONE',  ( -0.000000000000000000, 0.000000000000000000, 1.000000000000000000 ) ) ;
#342 = EDGE_LOOP ( 'NONE', ( #92 ) ) ;
#343 = TOROIDAL_SURFACE ( 'NONE', #232, 41.00000000000000000, 10.00000000000000000 ) ;
#344 = CARTESIAN_POINT ( 'NONE',  ( -11.30000000000000071, 0.000000000000000000, 0.000000000000000000 ) ) ;
#345 = CC_DESIGN_DATE_AND_TIME_ASSIGNMENT ( #102, #212, ( #151 ) ) ;
#346 = EDGE_LOOP ( 'NONE', ( #84 ) ) ;
#347 = DIRECTION ( 'NONE',  ( 1.541976423090495140E-16, -1.000000000000000000, 0.000000000000000000 ) ) ;
#348 = EDGE_CURVE ( 'NONE', #86, #86, #147, .T. ) ;
#349 = ORIENTED_EDGE ( 'NONE', *, *, #358, .F. ) ;
#350 = FACE_OUTER_BOUND ( 'NONE', #338, .T. ) ;
#351 = CALENDAR_DATE ( 2021, 23, 8 ) ;
#352 = LOCAL_TIME ( 16, 51, 11.00000000000000000, #123 ) ;
#353 = PERSON_AND_ORGANIZATION ( #312, #136 ) ;
#354 = EDGE_CURVE ( 'NONE', #175, #175, #43, .T. ) ;
#355 = ORIENTED_EDGE ( 'NONE', *, *, #348, .F. ) ;
#356 = PERSON_AND_ORGANIZATION ( #312, #136 ) ;
#357 = CALENDAR_DATE ( 2021, 23, 8 ) ;
#358 = EDGE_CURVE ( 'NONE', #287, #287, #174, .T. ) ;
#359 = DIRECTION ( 'NONE',  ( 1.324216393875425095E-16, -1.000000000000000000, 0.000000000000000000 ) ) ;
#360 = APPROVAL_PERSON_ORGANIZATION ( #275, #230, #127 ) ;
#361 = ADVANCED_FACE ( 'NONE', ( #47, #74 ), #7, .T. ) ;
#362 = DIRECTION ( 'NONE',  ( -1.000000000000000000, -1.836970198721029934E-16, -0.000000000000000000 ) ) ;
#363 = CARTESIAN_POINT ( 'NONE',  ( 12.90000000000000036, -13.09999999999999609, 0.000000000000000000 ) ) ;
#364 = EDGE_LOOP ( 'NONE', ( #301 ) ) ;
#365 = EDGE_LOOP ( 'NONE', ( #145 ) ) ;
#366 = CARTESIAN_POINT ( 'NONE',  ( 12.29999999999999716, -12.49999999999999467, 0.000000000000000000 ) ) ;
#367 = LOCAL_TIME ( 16, 51, 11.00000000000000000, #323 ) ;
#368 = ORIENTED_EDGE ( 'NONE', *, *, #164, .F. ) ;
#369 = AXIS2_PLACEMENT_3D ( 'NONE', #311, #318, #198 ) ;
ENDSEC;
END-ISO-10303-21;
