ISO-10303-21;
HEADER;
FILE_DESCRIPTION (( 'STEP AP203' ),
    '1' );
FILE_NAME ('LFR 5204-10KDD.step',
    '2021-08-23T14:51:10',
    ( '' ),
    ( '' ),
    'SwSTEP 2.0',
    'SolidWorks 2020',
    '' );
FILE_SCHEMA (( 'CONFIG_CONTROL_DESIGN' ));
ENDSEC;

DATA;
#1 = ORIENTED_EDGE ( 'NONE', *, *, #32, .F. ) ;
#2 = EDGE_LOOP ( 'NONE', ( #116 ) ) ;
#3 = DESIGN_CONTEXT ( 'detailed design', #221, 'design' ) ;
#4 = ORIENTED_EDGE ( 'NONE', *, *, #24, .F. ) ;
#5 = EDGE_CURVE ( 'NONE', #148, #148, #122, .T. ) ;
#6 = CIRCLE ( 'NONE', #265, 17.19999999999999929 ) ;
#7 = FACE_OUTER_BOUND ( 'NONE', #27, .T. ) ;
#8 = ADVANCED_FACE ( 'NONE', ( #84, #172 ), #277, .T. ) ;
#9 = CARTESIAN_POINT ( 'NONE',  ( 3.882975663070787675, 0.000000000000000000, 17.50000000000000000 ) ) ;
#10 = TOROIDAL_SURFACE ( 'NONE', #243, 20.64999999999999858, 5.000000000000000000 ) ;
#11 = TOROIDAL_SURFACE ( 'NONE', #185, 17.19999999999999929, 0.2999999999999999889 ) ;
#12 =( NAMED_UNIT ( * ) PLANE_ANGLE_UNIT ( ) SI_UNIT ( $, .RADIAN. ) );
#13 = ORIENTED_EDGE ( 'NONE', *, *, #288, .T. ) ;
#14 = CC_DESIGN_PERSON_AND_ORGANIZATION_ASSIGNMENT ( #50, #88, ( #81 ) ) ;
#15 = CARTESIAN_POINT ( 'NONE',  ( -7.950000000000003730, 17.19999999999999929, 0.000000000000000000 ) ) ;
#16 = AXIS2_PLACEMENT_3D ( 'NONE', #210, #251, #82 ) ;
#17 = AXIS2_PLACEMENT_3D ( 'NONE', #21, #204, #289 ) ;
#18 = CARTESIAN_POINT ( 'NONE',  ( 7.950000000000000178, 5.510910596163092637E-17, 0.000000000000000000 ) ) ;
#19 = DATE_TIME_ROLE ( 'creation_date' ) ;
#20 = EDGE_LOOP ( 'NONE', ( #97 ) ) ;
#21 = CARTESIAN_POINT ( 'NONE',  ( 3.882975663070787675, 0.000000000000000000, 0.000000000000000000 ) ) ;
#22 = EDGE_LOOP ( 'NONE', ( #107 ) ) ;
#23 = CALENDAR_DATE ( 2021, 23, 8 ) ;
#24 = EDGE_CURVE ( 'NONE', #218, #218, #123, .T. ) ;
#25 = ORIENTED_EDGE ( 'NONE', *, *, #89, .T. ) ;
#26 = EDGE_LOOP ( 'NONE', ( #275 ) ) ;
#27 = EDGE_LOOP ( 'NONE', ( #256 ) ) ;
#28 = SHAPE_DEFINITION_REPRESENTATION ( #213, #47 ) ;
#29 = UNCERTAINTY_MEASURE_WITH_UNIT (LENGTH_MEASURE( 1.000000000000000082E-05 ), #166, 'distance_accuracy_value', 'NONE');
#30 = EDGE_LOOP ( 'NONE', ( #69 ) ) ;
#31 = FACE_OUTER_BOUND ( 'NONE', #38, .T. ) ;
#32 = EDGE_CURVE ( 'NONE', #254, #254, #160, .T. ) ;
#33 = CARTESIAN_POINT ( 'NONE',  ( -7.950000000000001954, 0.000000000000000000, 0.000000000000000000 ) ) ;
#34 = VERTEX_POINT ( 'NONE', #128 ) ;
#35 =( GEOMETRIC_REPRESENTATION_CONTEXT ( 3 ) GLOBAL_UNCERTAINTY_ASSIGNED_CONTEXT ( ( #29 ) ) GLOBAL_UNIT_ASSIGNED_CONTEXT ( ( #166, #12, #273 ) ) REPRESENTATION_CONTEXT ( 'NONE', 'WORKASPACE' ) );
#36 = DIRECTION ( 'NONE',  ( 0.000000000000000000, 0.000000000000000000, 1.000000000000000000 ) ) ;
#37 = CC_DESIGN_PERSON_AND_ORGANIZATION_ASSIGNMENT ( #90, #105, ( #115 ) ) ;
#38 = EDGE_LOOP ( 'NONE', ( #44 ) ) ;
#39 = VERTEX_POINT ( 'NONE', #15 ) ;
#40 = DIRECTION ( 'NONE',  ( -1.000000000000000000, -1.836970198721029688E-16, -0.000000000000000000 ) ) ;
#41 = PLANE ( 'NONE',  #201 ) ;
#42 = DIRECTION ( 'NONE',  ( 0.000000000000000000, 0.000000000000000000, 1.000000000000000000 ) ) ;
#43 = DIRECTION ( 'NONE',  ( 0.000000000000000000, 0.000000000000000000, 1.000000000000000000 ) ) ;
#44 = ORIENTED_EDGE ( 'NONE', *, *, #288, .F. ) ;
#45 = PERSON_AND_ORGANIZATION_ROLE ( 'design_owner' ) ;
#46 = DIRECTION ( 'NONE',  ( -1.836970198721029688E-16, 1.000000000000000000, 0.000000000000000000 ) ) ;
#47 = ADVANCED_BREP_SHAPE_REPRESENTATION ( 'LFR 5204-10KDD', ( #266, #168 ), #35 ) ;
#48 = LOCAL_TIME ( 16, 51, 10.00000000000000000, #228 ) ;
#49 = EDGE_LOOP ( 'NONE', ( #252 ) ) ;
#50 = PERSON_AND_ORGANIZATION ( #250, #284 ) ;
#51 = ADVANCED_FACE ( 'NONE', ( #279, #196 ), #129, .T. ) ;
#52 = SECURITY_CLASSIFICATION_LEVEL ( 'unclassified' ) ;
#53 = ORIENTED_EDGE ( 'NONE', *, *, #5, .F. ) ;
#54 = DIRECTION ( 'NONE',  ( -1.445602896647339163E-16, 1.000000000000000000, 0.000000000000000000 ) ) ;
#55 = CARTESIAN_POINT ( 'NONE',  ( -7.650000000000001243, 0.000000000000000000, 0.000000000000000000 ) ) ;
#56 = AXIS2_PLACEMENT_3D ( 'NONE', #262, #223, #152 ) ;
#57 = CARTESIAN_POINT ( 'NONE',  ( 7.949999999999998401, 10.80000000000000426, 0.000000000000000000 ) ) ;
#58 = ADVANCED_FACE ( 'NONE', ( #171, #255 ), #10, .F. ) ;
#59 = EDGE_CURVE ( 'NONE', #39, #39, #264, .T. ) ;
#60 = CARTESIAN_POINT ( 'NONE',  ( -7.950000000000001954, 6.299999999999999822, 0.000000000000000000 ) ) ;
#61 = CARTESIAN_POINT ( 'NONE',  ( -7.950000000000000178, -5.510910596163084009E-17, 0.000000000000000000 ) ) ;
#62 = CARTESIAN_POINT ( 'NONE',  ( 7.649999999999999467, -5.999999999999997335, 0.000000000000000000 ) ) ;
#63 = DIRECTION ( 'NONE',  ( 0.000000000000000000, 0.000000000000000000, 1.000000000000000000 ) ) ;
#64 = EDGE_CURVE ( 'NONE', #253, #253, #235, .T. ) ;
#65 = EDGE_LOOP ( 'NONE', ( #267 ) ) ;
#66 = APPROVAL_STATUS ( 'not_yet_approved' ) ;
#67 = AXIS2_PLACEMENT_3D ( 'NONE', #33, #229, #79 ) ;
#68 = DIRECTION ( 'NONE',  ( -2.017120320903264195E-16, 1.000000000000000000, 0.000000000000000000 ) ) ;
#69 = ORIENTED_EDGE ( 'NONE', *, *, #239, .F. ) ;
#70 = DATE_AND_TIME ( #159, #87 ) ;
#71 = PERSON_AND_ORGANIZATION ( #250, #284 ) ;
#72 = AXIS2_PLACEMENT_3D ( 'NONE', #217, #102, #280 ) ;
#73 = EDGE_CURVE ( 'NONE', #270, #270, #200, .T. ) ;
#74 = CIRCLE ( 'NONE', #108, 17.50000000000000000 ) ;
#75 = PRODUCT_DEFINITION_FORMATION_WITH_SPECIFIED_SOURCE ( 'ANY', '', #188, .NOT_KNOWN. ) ;
#76 = FACE_OUTER_BOUND ( 'NONE', #183, .T. ) ;
#77 = AXIS2_PLACEMENT_3D ( 'NONE', #157, #40, #85 ) ;
#78 = APPROVAL_PERSON_ORGANIZATION ( #225, #193, #110 ) ;
#79 = DIRECTION ( 'NONE',  ( 2.891205793294678326E-16, -1.000000000000000000, 0.000000000000000000 ) ) ;
#80 = CARTESIAN_POINT ( 'NONE',  ( 7.950000000000003730, -17.19999999999999929, 0.000000000000000000 ) ) ;
#81 = PRODUCT_DEFINITION ( 'UNKNOWN', '', #75, #3 ) ;
#82 = DIRECTION ( 'NONE',  ( 1.836970198721029688E-16, -1.000000000000000000, 0.000000000000000000 ) ) ;
#83 = DIRECTION ( 'NONE',  ( -1.000000000000000000, -0.000000000000000000, -0.000000000000000000 ) ) ;
#84 = FACE_OUTER_BOUND ( 'NONE', #155, .T. ) ;
#85 = DIRECTION ( 'NONE',  ( 1.982541115402065356E-16, -1.000000000000000000, 0.000000000000000000 ) ) ;
#86 = PERSON_AND_ORGANIZATION_ROLE ( 'design_supplier' ) ;
#87 = LOCAL_TIME ( 16, 51, 10.00000000000000000, #173 ) ;
#88 = PERSON_AND_ORGANIZATION_ROLE ( 'creator' ) ;
#89 = EDGE_CURVE ( 'NONE', #209, #209, #211, .T. ) ;
#90 = PERSON_AND_ORGANIZATION ( #250, #284 ) ;
#91 = CC_DESIGN_PERSON_AND_ORGANIZATION_ASSIGNMENT ( #134, #86, ( #75 ) ) ;
#92 = EDGE_LOOP ( 'NONE', ( #13 ) ) ;
#93 = PERSON_AND_ORGANIZATION_ROLE ( 'creator' ) ;
#94 = CC_DESIGN_APPROVAL ( #247, ( #75 ) ) ;
#95 = FACE_OUTER_BOUND ( 'NONE', #286, .T. ) ;
#96 = EDGE_LOOP ( 'NONE', ( #191 ) ) ;
#97 = ORIENTED_EDGE ( 'NONE', *, *, #239, .T. ) ;
#98 = AXIS2_PLACEMENT_3D ( 'NONE', #165, #83, #232 ) ;
#99 = APPROVAL_PERSON_ORGANIZATION ( #203, #247, #260 ) ;
#100 = FACE_OUTER_BOUND ( 'NONE', #22, .T. ) ;
#101 = DIRECTION ( 'NONE',  ( -1.000000000000000000, -1.836970198721029688E-16, 0.000000000000000000 ) ) ;
#102 = DIRECTION ( 'NONE',  ( 1.000000000000000000, 1.836970198721029688E-16, 0.000000000000000000 ) ) ;
#103 = LOCAL_TIME ( 16, 51, 10.00000000000000000, #179 ) ;
#104 = CARTESIAN_POINT ( 'NONE',  ( -7.950000000000000178, 2.407412430484044816E-31, 0.000000000000000000 ) ) ;
#105 = PERSON_AND_ORGANIZATION_ROLE ( 'classification_officer' ) ;
#106 = APPROVAL_STATUS ( 'not_yet_approved' ) ;
#107 = ORIENTED_EDGE ( 'NONE', *, *, #73, .T. ) ;
#108 = AXIS2_PLACEMENT_3D ( 'NONE', #274, #248, #141 ) ;
#109 = CARTESIAN_POINT ( 'NONE',  ( -7.650000000000001243, 5.510910596163108044E-17, 0.000000000000000000 ) ) ;
#110 = APPROVAL_ROLE ( '' ) ;
#111 = FACE_OUTER_BOUND ( 'NONE', #189, .T. ) ;
#112 = ORIENTED_EDGE ( 'NONE', *, *, #64, .F. ) ;
#113 = DATE_AND_TIME ( #281, #212 ) ;
#114 = ADVANCED_FACE ( 'NONE', ( #95, #111 ), #282, .T. ) ;
#115 = SECURITY_CLASSIFICATION ( '', '', #52 ) ;
#116 = ORIENTED_EDGE ( 'NONE', *, *, #32, .T. ) ;
#117 = PLANE ( 'NONE',  #147 ) ;
#118 = FACE_OUTER_BOUND ( 'NONE', #133, .T. ) ;
#119 = AXIS2_PLACEMENT_3D ( 'NONE', #104, #283, #195 ) ;
#120 = ORIENTED_EDGE ( 'NONE', *, *, #24, .T. ) ;
#121 = CIRCLE ( 'NONE', #98, 17.50000000000000000 ) ;
#122 = CIRCLE ( 'NONE', #72, 6.000000000000000000 ) ;
#123 = CIRCLE ( 'NONE', #77, 17.50000000000000000 ) ;
#124 = FACE_BOUND ( 'NONE', #96, .T. ) ;
#125 = VERTEX_POINT ( 'NONE', #216 ) ;
#126 = VERTEX_POINT ( 'NONE', #80 ) ;
#127 = CARTESIAN_POINT ( 'NONE',  ( -7.950000000000000178, 0.000000000000000000, 0.000000000000000000 ) ) ;
#128 = CARTESIAN_POINT ( 'NONE',  ( -7.650000000000004796, 17.50000000000000000, 0.000000000000000000 ) ) ;
#129 = CYLINDRICAL_SURFACE ( 'NONE', #271, 17.50000000000000000 ) ;
#130 = ORIENTED_EDGE ( 'NONE', *, *, #59, .T. ) ;
#131 = CALENDAR_DATE ( 2021, 23, 8 ) ;
#132 = DIRECTION ( 'NONE',  ( 1.000000000000000000, 1.836970198721029688E-16, 0.000000000000000000 ) ) ;
#133 = EDGE_LOOP ( 'NONE', ( #130 ) ) ;
#134 = PERSON_AND_ORGANIZATION ( #250, #284 ) ;
#135 = EDGE_CURVE ( 'NONE', #34, #34, #74, .T. ) ;
#136 = FACE_OUTER_BOUND ( 'NONE', #227, .T. ) ;
#137 = PERSON_AND_ORGANIZATION ( #250, #284 ) ;
#138 = ADVANCED_FACE ( 'NONE', ( #118, #226 ), #117, .F. ) ;
#139 = CC_DESIGN_DATE_AND_TIME_ASSIGNMENT ( #259, #19, ( #81 ) ) ;
#140 = ORIENTED_EDGE ( 'NONE', *, *, #89, .F. ) ;
#141 = DIRECTION ( 'NONE',  ( -1.982541115402065356E-16, 1.000000000000000000, 0.000000000000000000 ) ) ;
#142 = AXIS2_PLACEMENT_3D ( 'NONE', #61, #219, #68 ) ;
#143 = DIRECTION ( 'NONE',  ( 1.000000000000000000, 1.836970198721029688E-16, 0.000000000000000000 ) ) ;
#144 = DIRECTION ( 'NONE',  ( 2.017120320903264195E-16, -1.000000000000000000, 0.000000000000000000 ) ) ;
#145 = CARTESIAN_POINT ( 'NONE',  ( -7.950000000000000178, 0.000000000000000000, 0.000000000000000000 ) ) ;
#146 = LOCAL_TIME ( 16, 51, 10.00000000000000000, #258 ) ;
#147 = AXIS2_PLACEMENT_3D ( 'NONE', #187, #208, #184 ) ;
#148 = VERTEX_POINT ( 'NONE', #62 ) ;
#149 = CYLINDRICAL_SURFACE ( 'NONE', #67, 6.000000000000000000 ) ;
#150 = CC_DESIGN_PERSON_AND_ORGANIZATION_ASSIGNMENT ( #71, #93, ( #75 ) ) ;
#151 = CARTESIAN_POINT ( 'NONE',  ( 0.000000000000000000, 0.000000000000000000, 0.000000000000000000 ) ) ;
#152 = DIRECTION ( 'NONE',  ( 1.836970198721029688E-16, -1.000000000000000000, 0.000000000000000000 ) ) ;
#153 = DIRECTION ( 'NONE',  ( -1.000000000000000000, -0.000000000000000000, -0.000000000000000000 ) ) ;
#154 = AXIS2_PLACEMENT_3D ( 'NONE', #109, #132, #177 ) ;
#155 = EDGE_LOOP ( 'NONE', ( #1 ) ) ;
#156 = DIRECTION ( 'NONE',  ( 1.000000000000000000, 0.000000000000000000, 0.000000000000000000 ) ) ;
#157 = CARTESIAN_POINT ( 'NONE',  ( 7.650000000000000355, 0.000000000000000000, 0.000000000000000000 ) ) ;
#158 = APPLICATION_PROTOCOL_DEFINITION ( 'international standard', 'config_control_design', 1994, #221 ) ;
#159 = CALENDAR_DATE ( 2021, 23, 8 ) ;
#160 = CIRCLE ( 'NONE', #119, 6.299999999999999822 ) ;
#161 = DIRECTION ( 'NONE',  ( 2.753529326947312927E-16, -1.000000000000000000, 0.000000000000000000 ) ) ;
#162 = APPROVAL_DATE_TIME ( #113, #224 ) ;
#163 = ADVANCED_FACE ( 'NONE', ( #7, #268 ), #11, .T. ) ;
#164 = AXIS2_PLACEMENT_3D ( 'NONE', #145, #231, #36 ) ;
#165 = CARTESIAN_POINT ( 'NONE',  ( -3.882975663070787675, 0.000000000000000000, 0.000000000000000000 ) ) ;
#166 =( LENGTH_UNIT ( ) NAMED_UNIT ( * ) SI_UNIT ( .MILLI., .METRE. ) );
#167 = ORIENTED_EDGE ( 'NONE', *, *, #5, .T. ) ;
#168 = AXIS2_PLACEMENT_3D ( 'NONE', #174, #43, #156 ) ;
#169 = FACE_OUTER_BOUND ( 'NONE', #65, .T. ) ;
#170 = PRODUCT_RELATED_PRODUCT_CATEGORY ( 'detail', '', ( #188 ) ) ;
#171 = FACE_OUTER_BOUND ( 'NONE', #30, .T. ) ;
#172 = FACE_OUTER_BOUND ( 'NONE', #49, .T. ) ;
#173 = COORDINATED_UNIVERSAL_TIME_OFFSET ( 1, 0, .AHEAD. ) ;
#174 = CARTESIAN_POINT ( 'NONE',  ( 0.000000000000000000, 0.000000000000000000, 0.000000000000000000 ) ) ;
#175 = AXIS2_PLACEMENT_3D ( 'NONE', #246, #182, #161 ) ;
#176 = TOROIDAL_SURFACE ( 'NONE', #56, 17.19999999999999929, 0.2999999999999999889 ) ;
#177 = DIRECTION ( 'NONE',  ( -1.836970198721029688E-16, 1.000000000000000000, 0.000000000000000000 ) ) ;
#178 = EDGE_LOOP ( 'NONE', ( #25 ) ) ;
#179 = COORDINATED_UNIVERSAL_TIME_OFFSET ( 1, 0, .AHEAD. ) ;
#180 = DATE_TIME_ROLE ( 'classification_date' ) ;
#181 = ADVANCED_FACE ( 'NONE', ( #31, #136 ), #176, .T. ) ;
#182 = DIRECTION ( 'NONE',  ( -1.000000000000000000, -1.836970198721029688E-16, -0.000000000000000000 ) ) ;
#183 = EDGE_LOOP ( 'NONE', ( #167 ) ) ;
#184 = DIRECTION ( 'NONE',  ( -1.836970198721029688E-16, 1.000000000000000000, 0.000000000000000000 ) ) ;
#185 = AXIS2_PLACEMENT_3D ( 'NONE', #55, #143, #46 ) ;
#186 = CARTESIAN_POINT ( 'NONE',  ( -7.650000000000001243, 5.510910596163099416E-17, 0.000000000000000000 ) ) ;
#187 = CARTESIAN_POINT ( 'NONE',  ( -7.950000000000001954, 6.000000000000000000, 0.000000000000000000 ) ) ;
#188 = PRODUCT ( 'LFR 5204-10KDD', 'LFR 5204-10KDD', '', ( #220 ) ) ;
#189 = EDGE_LOOP ( 'NONE', ( #112 ) ) ;
#190 = FACE_OUTER_BOUND ( 'NONE', #92, .T. ) ;
#191 = ORIENTED_EDGE ( 'NONE', *, *, #64, .T. ) ;
#192 = CARTESIAN_POINT ( 'NONE',  ( -7.650000000000002132, 6.000000000000000000, 0.000000000000000000 ) ) ;
#193 = APPROVAL ( #238, 'UNSPECIFIED' ) ;
#194 = APPLICATION_PROTOCOL_DEFINITION ( 'international standard', 'config_control_design', 1994, #198 ) ;
#195 = DIRECTION ( 'NONE',  ( -2.753529326947312927E-16, 1.000000000000000000, 0.000000000000000000 ) ) ;
#196 = FACE_OUTER_BOUND ( 'NONE', #205, .T. ) ;
#197 = PERSON_AND_ORGANIZATION ( #250, #284 ) ;
#198 = APPLICATION_CONTEXT ( 'configuration controlled 3d designs of mechanical parts and assemblies' ) ;
#199 = COORDINATED_UNIVERSAL_TIME_OFFSET ( 1, 0, .AHEAD. ) ;
#200 = CIRCLE ( 'NONE', #278, 6.000000000000000000 ) ;
#201 = AXIS2_PLACEMENT_3D ( 'NONE', #57, #101, #272 ) ;
#202 = CALENDAR_DATE ( 2021, 23, 8 ) ;
#203 = PERSON_AND_ORGANIZATION ( #250, #284 ) ;
#204 = DIRECTION ( 'NONE',  ( -1.000000000000000000, -0.000000000000000000, -0.000000000000000000 ) ) ;
#205 = EDGE_LOOP ( 'NONE', ( #140 ) ) ;
#206 = ADVANCED_FACE ( 'NONE', ( #76, #100 ), #149, .F. ) ;
#207 = CC_DESIGN_APPROVAL ( #224, ( #115 ) ) ;
#208 = DIRECTION ( 'NONE',  ( 1.000000000000000000, 1.836970198721029688E-16, 0.000000000000000000 ) ) ;
#209 = VERTEX_POINT ( 'NONE', #9 ) ;
#210 = CARTESIAN_POINT ( 'NONE',  ( 7.650000000000000355, 2.865673510004806963E-15, 0.000000000000000000 ) ) ;
#211 = CIRCLE ( 'NONE', #17, 17.50000000000000000 ) ;
#212 = LOCAL_TIME ( 16, 51, 10.00000000000000000, #199 ) ;
#213 = PRODUCT_DEFINITION_SHAPE ( 'NONE', 'NONE',  #81 ) ;
#214 = CARTESIAN_POINT ( 'NONE',  ( 7.650000000000003908, -17.50000000000000000, 0.000000000000000000 ) ) ;
#215 = CC_DESIGN_PERSON_AND_ORGANIZATION_ASSIGNMENT ( #137, #45, ( #188 ) ) ;
#216 = CARTESIAN_POINT ( 'NONE',  ( -3.882975663070787675, 0.000000000000000000, 17.50000000000000000 ) ) ;
#217 = CARTESIAN_POINT ( 'NONE',  ( 7.649999999999998579, 2.865673510004806569E-15, 0.000000000000000000 ) ) ;
#218 = VERTEX_POINT ( 'NONE', #214 ) ;
#219 = DIRECTION ( 'NONE',  ( -1.000000000000000000, -1.836970198721029688E-16, -0.000000000000000000 ) ) ;
#220 = MECHANICAL_CONTEXT ( 'NONE', #198, 'mechanical' ) ;
#221 = APPLICATION_CONTEXT ( 'configuration controlled 3d designs of mechanical parts and assemblies' ) ;
#222 = CC_DESIGN_APPROVAL ( #193, ( #81 ) ) ;
#223 = DIRECTION ( 'NONE',  ( -1.000000000000000000, -1.836970198721029688E-16, -0.000000000000000000 ) ) ;
#224 = APPROVAL ( #66, 'UNSPECIFIED' ) ;
#225 = PERSON_AND_ORGANIZATION ( #250, #284 ) ;
#226 = FACE_BOUND ( 'NONE', #2, .T. ) ;
#227 = EDGE_LOOP ( 'NONE', ( #4 ) ) ;
#228 = COORDINATED_UNIVERSAL_TIME_OFFSET ( 1, 0, .AHEAD. ) ;
#229 = DIRECTION ( 'NONE',  ( -1.000000000000000000, -1.836970198721029688E-16, -0.000000000000000000 ) ) ;
#230 = APPROVAL_PERSON_ORGANIZATION ( #197, #224, #237 ) ;
#231 = DIRECTION ( 'NONE',  ( -1.000000000000000000, -0.000000000000000000, -0.000000000000000000 ) ) ;
#232 = DIRECTION ( 'NONE',  ( 0.000000000000000000, 0.000000000000000000, 1.000000000000000000 ) ) ;
#233 = ADVANCED_FACE ( 'NONE', ( #190, #124 ), #41, .F. ) ;
#234 = CARTESIAN_POINT ( 'NONE',  ( 7.950000000000001954, -6.299999999999997158, 0.000000000000000000 ) ) ;
#235 = CIRCLE ( 'NONE', #175, 6.299999999999999822 ) ;
#236 = DIRECTION ( 'NONE',  ( -1.000000000000000000, -0.000000000000000000, -0.000000000000000000 ) ) ;
#237 = APPROVAL_ROLE ( '' ) ;
#238 = APPROVAL_STATUS ( 'not_yet_approved' ) ;
#239 = EDGE_CURVE ( 'NONE', #125, #125, #121, .T. ) ;
#240 = EDGE_LOOP ( 'NONE', ( #120 ) ) ;
#241 = DATE_AND_TIME ( #202, #146 ) ;
#242 = CLOSED_SHELL ( 'NONE', ( #138, #233, #206, #58, #261, #51, #181, #114, #163, #8 ) ) ;
#243 = AXIS2_PLACEMENT_3D ( 'NONE', #151, #236, #42 ) ;
#244 = CC_DESIGN_SECURITY_CLASSIFICATION ( #115, ( #75 ) ) ;
#245 = DIRECTION ( 'NONE',  ( -1.000000000000000000, -1.836970198721029688E-16, -0.000000000000000000 ) ) ;
#246 = CARTESIAN_POINT ( 'NONE',  ( 7.950000000000000178, 2.920782615966437859E-15, 0.000000000000000000 ) ) ;
#247 = APPROVAL ( #106, 'UNSPECIFIED' ) ;
#248 = DIRECTION ( 'NONE',  ( 1.000000000000000000, 1.836970198721029688E-16, 0.000000000000000000 ) ) ;
#249 = DIRECTION ( 'NONE',  ( 1.000000000000000000, 1.836970198721029688E-16, 0.000000000000000000 ) ) ;
#250 = PERSON ( 'UNSPECIFIED', 'UNSPECIFIED', 'UNSPECIFIED', ('UNSPECIFIED'), ('UNSPECIFIED'), ('UNSPECIFIED') ) ;
#251 = DIRECTION ( 'NONE',  ( -1.000000000000000000, -1.836970198721029688E-16, -0.000000000000000000 ) ) ;
#252 = ORIENTED_EDGE ( 'NONE', *, *, #73, .F. ) ;
#253 = VERTEX_POINT ( 'NONE', #234 ) ;
#254 = VERTEX_POINT ( 'NONE', #60 ) ;
#255 = FACE_OUTER_BOUND ( 'NONE', #178, .T. ) ;
#256 = ORIENTED_EDGE ( 'NONE', *, *, #135, .F. ) ;
#257 = CYLINDRICAL_SURFACE ( 'NONE', #164, 17.50000000000000000 ) ;
#258 = COORDINATED_UNIVERSAL_TIME_OFFSET ( 1, 0, .AHEAD. ) ;
#259 = DATE_AND_TIME ( #23, #48 ) ;
#260 = APPROVAL_ROLE ( '' ) ;
#261 = ADVANCED_FACE ( 'NONE', ( #169, #276 ), #257, .T. ) ;
#262 = CARTESIAN_POINT ( 'NONE',  ( 7.650000000000000355, 0.000000000000000000, 0.000000000000000000 ) ) ;
#263 = DATE_AND_TIME ( #131, #103 ) ;
#264 = CIRCLE ( 'NONE', #142, 17.19999999999999929 ) ;
#265 = AXIS2_PLACEMENT_3D ( 'NONE', #18, #249, #144 ) ;
#266 = MANIFOLD_SOLID_BREP ( 'Fillet1', #242 ) ;
#267 = ORIENTED_EDGE ( 'NONE', *, *, #135, .T. ) ;
#268 = FACE_OUTER_BOUND ( 'NONE', #26, .T. ) ;
#269 = CC_DESIGN_DATE_AND_TIME_ASSIGNMENT ( #263, #180, ( #115 ) ) ;
#270 = VERTEX_POINT ( 'NONE', #192 ) ;
#271 = AXIS2_PLACEMENT_3D ( 'NONE', #127, #153, #63 ) ;
#272 = DIRECTION ( 'NONE',  ( 1.836970198721029688E-16, -1.000000000000000000, 0.000000000000000000 ) ) ;
#273 =( NAMED_UNIT ( * ) SI_UNIT ( $, .STERADIAN. ) SOLID_ANGLE_UNIT ( ) );
#274 = CARTESIAN_POINT ( 'NONE',  ( -7.650000000000001243, 0.000000000000000000, 0.000000000000000000 ) ) ;
#275 = ORIENTED_EDGE ( 'NONE', *, *, #59, .F. ) ;
#276 = FACE_OUTER_BOUND ( 'NONE', #20, .T. ) ;
#277 = TOROIDAL_SURFACE ( 'NONE', #154, 6.299999999999999822, 0.2999999999999999889 ) ;
#278 = AXIS2_PLACEMENT_3D ( 'NONE', #186, #245, #54 ) ;
#279 = FACE_OUTER_BOUND ( 'NONE', #240, .T. ) ;
#280 = DIRECTION ( 'NONE',  ( 1.445602896647339163E-16, -1.000000000000000000, 0.000000000000000000 ) ) ;
#281 = CALENDAR_DATE ( 2021, 23, 8 ) ;
#282 = TOROIDAL_SURFACE ( 'NONE', #16, 6.299999999999999822, 0.2999999999999999889 ) ;
#283 = DIRECTION ( 'NONE',  ( 1.000000000000000000, 1.836970198721029688E-16, 0.000000000000000000 ) ) ;
#284 = ORGANIZATION ( 'UNSPECIFIED', 'UNSPECIFIED', '' ) ;
#285 = APPROVAL_DATE_TIME ( #70, #193 ) ;
#286 = EDGE_LOOP ( 'NONE', ( #53 ) ) ;
#287 = APPROVAL_DATE_TIME ( #241, #247 ) ;
#288 = EDGE_CURVE ( 'NONE', #126, #126, #6, .T. ) ;
#289 = DIRECTION ( 'NONE',  ( 0.000000000000000000, 0.000000000000000000, 1.000000000000000000 ) ) ;
ENDSEC;
END-ISO-10303-21;
