ISO-10303-21;
HEADER;
FILE_DESCRIPTION (( 'STEP AP203' ),
    '1' );
FILE_NAME ('LFR 5301-10KDD.step',
    '2021-08-23T14:51:13',
    ( '' ),
    ( '' ),
    'SwSTEP 2.0',
    'SolidWorks 2020',
    '' );
FILE_SCHEMA (( 'CONFIG_CONTROL_DESIGN' ));
ENDSEC;

DATA;
#1 = ORIENTED_EDGE ( 'NONE', *, *, #116, .F. ) ;
#2 =( NAMED_UNIT ( * ) PLANE_ANGLE_UNIT ( ) SI_UNIT ( $, .RADIAN. ) );
#3 = EDGE_LOOP ( 'NONE', ( #110 ) ) ;
#4 = CIRCLE ( 'NONE', #5, 20.39999999999999858 ) ;
#5 = AXIS2_PLACEMENT_3D ( 'NONE', #56, #32, #279 ) ;
#6 = EDGE_LOOP ( 'NONE', ( #1 ) ) ;
#7 = EDGE_LOOP ( 'NONE', ( #202 ) ) ;
#8 = EDGE_LOOP ( 'NONE', ( #69 ) ) ;
#9 = AXIS2_PLACEMENT_3D ( 'NONE', #169, #22, #248 ) ;
#10 = DIRECTION ( 'NONE',  ( 1.000000000000000000, 1.836970198721029441E-16, 0.000000000000000000 ) ) ;
#11 = DIRECTION ( 'NONE',  ( -1.836970198721029688E-16, 1.000000000000000000, 0.000000000000000000 ) ) ;
#12 = ADVANCED_FACE ( 'NONE', ( #120, #230 ), #124, .F. ) ;
#13 = ORIENTED_EDGE ( 'NONE', *, *, #267, .T. ) ;
#14 = EDGE_CURVE ( 'NONE', #275, #275, #4, .T. ) ;
#15 = TOROIDAL_SURFACE ( 'NONE', #251, 24.00000000000000000, 5.000000000000000000 ) ;
#16 = CYLINDRICAL_SURFACE ( 'NONE', #135, 20.99999999999999645 ) ;
#17 = DIRECTION ( 'NONE',  ( -1.000000000000000000, -1.836970198721029441E-16, -0.000000000000000000 ) ) ;
#18 = DIRECTION ( 'NONE',  ( 1.836970198721029441E-16, -1.000000000000000000, 0.000000000000000000 ) ) ;
#19 = DIRECTION ( 'NONE',  ( 2.891205793294678326E-16, -1.000000000000000000, 0.000000000000000000 ) ) ;
#20 = FACE_OUTER_BOUND ( 'NONE', #278, .T. ) ;
#21 = EDGE_LOOP ( 'NONE', ( #184 ) ) ;
#22 = DIRECTION ( 'NONE',  ( -1.000000000000000000, -1.836970198721029441E-16, -0.000000000000000000 ) ) ;
#23 = APPROVAL_PERSON_ORGANIZATION ( #158, #77, #179 ) ;
#24 = CARTESIAN_POINT ( 'NONE',  ( -9.500000000000003553, 20.39999999999999858, 0.000000000000000000 ) ) ;
#25 = AXIS2_PLACEMENT_3D ( 'NONE', #137, #232, #76 ) ;
#26 = VERTEX_POINT ( 'NONE', #38 ) ;
#27 = EDGE_LOOP ( 'NONE', ( #117 ) ) ;
#28 = CIRCLE ( 'NONE', #112, 20.99999999999999645 ) ;
#29 = APPROVAL_DATE_TIME ( #73, #255 ) ;
#30 = CARTESIAN_POINT ( 'NONE',  ( -9.500000000000000000, 9.629649721936179265E-32, 0.000000000000000000 ) ) ;
#31 = ADVANCED_FACE ( 'NONE', ( #229, #154 ), #231, .F. ) ;
#32 = DIRECTION ( 'NONE',  ( 1.000000000000000000, 1.836970198721029441E-16, 0.000000000000000000 ) ) ;
#33 = FACE_OUTER_BOUND ( 'NONE', #107, .T. ) ;
#34 = CC_DESIGN_PERSON_AND_ORGANIZATION_ASSIGNMENT ( #215, #176, ( #155 ) ) ;
#35 = FACE_OUTER_BOUND ( 'NONE', #249, .T. ) ;
#36 = SECURITY_CLASSIFICATION_LEVEL ( 'unclassified' ) ;
#37 = AXIS2_PLACEMENT_3D ( 'NONE', #191, #131, #256 ) ;
#38 = CARTESIAN_POINT ( 'NONE',  ( 8.900000000000005684, -20.99999999999999645, 0.000000000000000000 ) ) ;
#39 = ORIENTED_EDGE ( 'NONE', *, *, #243, .T. ) ;
#40 = ORIENTED_EDGE ( 'NONE', *, *, #14, .F. ) ;
#41 = ADVANCED_FACE ( 'NONE', ( #209, #48 ), #142, .T. ) ;
#42 = PERSON_AND_ORGANIZATION ( #123, #128 ) ;
#43 = ORIENTED_EDGE ( 'NONE', *, *, #192, .F. ) ;
#44 = DIRECTION ( 'NONE',  ( 2.628368902995162518E-16, -1.000000000000000000, 0.000000000000000000 ) ) ;
#45 = EDGE_LOOP ( 'NONE', ( #246 ) ) ;
#46 = UNCERTAINTY_MEASURE_WITH_UNIT (LENGTH_MEASURE( 1.000000000000000082E-05 ), #242, 'distance_accuracy_value', 'NONE');
#47 = PRODUCT_DEFINITION_FORMATION_WITH_SPECIFIED_SOURCE ( 'ANY', '', #265, .NOT_KNOWN. ) ;
#48 = FACE_OUTER_BOUND ( 'NONE', #6, .T. ) ;
#49 = AXIS2_PLACEMENT_3D ( 'NONE', #104, #268, #245 ) ;
#50 = PERSON_AND_ORGANIZATION ( #123, #128 ) ;
#51 = LOCAL_TIME ( 16, 51, 13.00000000000000000, #62 ) ;
#52 = EDGE_LOOP ( 'NONE', ( #148 ) ) ;
#53 = APPROVAL_PERSON_ORGANIZATION ( #50, #255, #157 ) ;
#54 = DIRECTION ( 'NONE',  ( 1.000000000000000000, 1.836970198721029441E-16, 0.000000000000000000 ) ) ;
#55 = EDGE_CURVE ( 'NONE', #68, #68, #225, .T. ) ;
#56 = CARTESIAN_POINT ( 'NONE',  ( 9.500000000000000000, 1.102182119232614583E-16, 0.000000000000000000 ) ) ;
#57 = CARTESIAN_POINT ( 'NONE',  ( -9.499999999999998224, 0.000000000000000000, 0.000000000000000000 ) ) ;
#58 = DIRECTION ( 'NONE',  ( -1.000000000000000000, -0.000000000000000000, -0.000000000000000000 ) ) ;
#59 = DIRECTION ( 'NONE',  ( 2.891205793294678326E-16, -1.000000000000000000, 0.000000000000000000 ) ) ;
#60 = FACE_OUTER_BOUND ( 'NONE', #93, .T. ) ;
#61 = CIRCLE ( 'NONE', #269, 6.000000000000000000 ) ;
#62 = COORDINATED_UNIVERSAL_TIME_OFFSET ( 1, 0, .AHEAD. ) ;
#63 = SHAPE_DEFINITION_REPRESENTATION ( #270, #150 ) ;
#64 = TOROIDAL_SURFACE ( 'NONE', #286, 6.599999999999999645, 0.5999999999999999778 ) ;
#65 = CARTESIAN_POINT ( 'NONE',  ( 0.000000000000000000, 0.000000000000000000, 0.000000000000000000 ) ) ;
#66 = CC_DESIGN_DATE_AND_TIME_ASSIGNMENT ( #85, #136, ( #70 ) ) ;
#67 = DIRECTION ( 'NONE',  ( 1.000000000000000000, 0.000000000000000000, 0.000000000000000000 ) ) ;
#68 = VERTEX_POINT ( 'NONE', #90 ) ;
#69 = ORIENTED_EDGE ( 'NONE', *, *, #243, .F. ) ;
#70 = PRODUCT_DEFINITION ( 'UNKNOWN', '', #47, #164 ) ;
#71 = COORDINATED_UNIVERSAL_TIME_OFFSET ( 1, 0, .AHEAD. ) ;
#72 = EDGE_LOOP ( 'NONE', ( #39 ) ) ;
#73 = DATE_AND_TIME ( #95, #288 ) ;
#74 = DIRECTION ( 'NONE',  ( -1.700709290173340409E-16, 1.000000000000000000, 0.000000000000000000 ) ) ;
#75 = CARTESIAN_POINT ( 'NONE',  ( -9.500000000000001776, 6.000000000000000000, 0.000000000000000000 ) ) ;
#76 = DIRECTION ( 'NONE',  ( 0.000000000000000000, 0.000000000000000000, 1.000000000000000000 ) ) ;
#77 = APPROVAL ( #161, 'UNSPECIFIED' ) ;
#78 = MANIFOLD_SOLID_BREP ( 'Fillet1', #82 ) ;
#79 = DIRECTION ( 'NONE',  ( -1.000000000000000000, -0.000000000000000000, -0.000000000000000000 ) ) ;
#80 = DIRECTION ( 'NONE',  ( -1.000000000000000000, -1.836970198721029441E-16, -0.000000000000000000 ) ) ;
#81 = DIRECTION ( 'NONE',  ( 0.000000000000000000, 0.000000000000000000, 1.000000000000000000 ) ) ;
#82 = CLOSED_SHELL ( 'NONE', ( #12, #31, #235, #146, #178, #208, #189, #134, #41, #280 ) ) ;
#83 = CIRCLE ( 'NONE', #9, 6.000000000000000000 ) ;
#84 = VERTEX_POINT ( 'NONE', #113 ) ;
#85 = DATE_AND_TIME ( #261, #130 ) ;
#86 = CARTESIAN_POINT ( 'NONE',  ( 9.500000000000000000, 3.490243377569956456E-15, 0.000000000000000000 ) ) ;
#87 = APPROVAL_DATE_TIME ( #196, #77 ) ;
#88 = CC_DESIGN_PERSON_AND_ORGANIZATION_ASSIGNMENT ( #162, #183, ( #47 ) ) ;
#89 = CARTESIAN_POINT ( 'NONE',  ( 8.900000000000007461, -5.999999999999996447, 0.000000000000000000 ) ) ;
#90 = CARTESIAN_POINT ( 'NONE',  ( -9.500000000000001776, 6.599999999999999645, 0.000000000000000000 ) ) ;
#91 = ORIENTED_EDGE ( 'NONE', *, *, #192, .T. ) ;
#92 = APPLICATION_PROTOCOL_DEFINITION ( 'international standard', 'config_control_design', 1994, #163 ) ;
#93 = EDGE_LOOP ( 'NONE', ( #91 ) ) ;
#94 = ORIENTED_EDGE ( 'NONE', *, *, #277, .F. ) ;
#95 = CALENDAR_DATE ( 2021, 23, 8 ) ;
#96 = DIRECTION ( 'NONE',  ( 1.000000000000000000, 1.836970198721029441E-16, 0.000000000000000000 ) ) ;
#97 = CARTESIAN_POINT ( 'NONE',  ( -9.500000000000000000, -1.102182119232618527E-16, 0.000000000000000000 ) ) ;
#98 = CYLINDRICAL_SURFACE ( 'NONE', #125, 6.000000000000000000 ) ;
#99 = APPROVAL_STATUS ( 'not_yet_approved' ) ;
#100 = DIRECTION ( 'NONE',  ( 1.652117596168388002E-16, -1.000000000000000000, 0.000000000000000000 ) ) ;
#101 = PERSON_AND_ORGANIZATION ( #123, #128 ) ;
#102 = CC_DESIGN_APPROVAL ( #255, ( #70 ) ) ;
#103 = CARTESIAN_POINT ( 'NONE',  ( 8.900000000000002132, 0.000000000000000000, 0.000000000000000000 ) ) ;
#104 = CARTESIAN_POINT ( 'NONE',  ( 3.999999999999998224, 0.000000000000000000, 0.000000000000000000 ) ) ;
#105 = AXIS2_PLACEMENT_3D ( 'NONE', #233, #79, #81 ) ;
#106 = CALENDAR_DATE ( 2021, 23, 8 ) ;
#107 = EDGE_LOOP ( 'NONE', ( #170 ) ) ;
#108 = PERSON_AND_ORGANIZATION ( #123, #128 ) ;
#109 = FACE_OUTER_BOUND ( 'NONE', #273, .T. ) ;
#110 = ORIENTED_EDGE ( 'NONE', *, *, #260, .F. ) ;
#111 = VERTEX_POINT ( 'NONE', #143 ) ;
#112 = AXIS2_PLACEMENT_3D ( 'NONE', #144, #147, #224 ) ;
#113 = CARTESIAN_POINT ( 'NONE',  ( -8.900000000000003908, 20.99999999999999645, 0.000000000000000000 ) ) ;
#114 = EDGE_LOOP ( 'NONE', ( #166 ) ) ;
#115 = VERTEX_POINT ( 'NONE', #285 ) ;
#116 = EDGE_CURVE ( 'NONE', #227, #227, #252, .T. ) ;
#117 = ORIENTED_EDGE ( 'NONE', *, *, #217, .F. ) ;
#118 = CIRCLE ( 'NONE', #49, 20.99999999999999645 ) ;
#119 = PERSON_AND_ORGANIZATION ( #123, #128 ) ;
#120 = FACE_OUTER_BOUND ( 'NONE', #188, .T. ) ;
#121 = AXIS2_PLACEMENT_3D ( 'NONE', #103, #156, #100 ) ;
#122 = EDGE_LOOP ( 'NONE', ( #203 ) ) ;
#123 = PERSON ( 'UNSPECIFIED', 'UNSPECIFIED', 'UNSPECIFIED', ('UNSPECIFIED'), ('UNSPECIFIED'), ('UNSPECIFIED') ) ;
#124 = PLANE ( 'NONE',  #257 ) ;
#125 = AXIS2_PLACEMENT_3D ( 'NONE', #193, #80, #59 ) ;
#126 = CC_DESIGN_PERSON_AND_ORGANIZATION_ASSIGNMENT ( #42, #197, ( #265 ) ) ;
#127 = CARTESIAN_POINT ( 'NONE',  ( 9.499999999999998224, 10.80000000000000071, 0.000000000000000000 ) ) ;
#128 = ORGANIZATION ( 'UNSPECIFIED', 'UNSPECIFIED', '' ) ;
#129 = TOROIDAL_SURFACE ( 'NONE', #37, 20.39999999999999858, 0.5999999999999999778 ) ;
#130 = LOCAL_TIME ( 16, 51, 13.00000000000000000, #241 ) ;
#131 = DIRECTION ( 'NONE',  ( -1.000000000000000000, -1.836970198721029441E-16, -0.000000000000000000 ) ) ;
#132 = CIRCLE ( 'NONE', #254, 6.599999999999999645 ) ;
#133 = DATE_AND_TIME ( #284, #226 ) ;
#134 = ADVANCED_FACE ( 'NONE', ( #171, #153 ), #271, .T. ) ;
#135 = AXIS2_PLACEMENT_3D ( 'NONE', #57, #283, #234 ) ;
#136 = DATE_TIME_ROLE ( 'creation_date' ) ;
#137 = CARTESIAN_POINT ( 'NONE',  ( -9.499999999999998224, 0.000000000000000000, 0.000000000000000000 ) ) ;
#138 = VERTEX_POINT ( 'NONE', #201 ) ;
#139 = CC_DESIGN_PERSON_AND_ORGANIZATION_ASSIGNMENT ( #119, #206, ( #70 ) ) ;
#140 = AXIS2_PLACEMENT_3D ( 'NONE', #195, #17, #18 ) ;
#141 = AXIS2_PLACEMENT_3D ( 'NONE', #127, #151, #211 ) ;
#142 = TOROIDAL_SURFACE ( 'NONE', #200, 20.39999999999999858, 0.5999999999999999778 ) ;
#143 = CARTESIAN_POINT ( 'NONE',  ( 9.500000000000001776, -6.599999999999996092, 0.000000000000000000 ) ) ;
#144 = CARTESIAN_POINT ( 'NONE',  ( -8.900000000000000355, 0.000000000000000000, 0.000000000000000000 ) ) ;
#145 = VERTEX_POINT ( 'NONE', #89 ) ;
#146 = ADVANCED_FACE ( 'NONE', ( #218, #213 ), #15, .F. ) ;
#147 = DIRECTION ( 'NONE',  ( 1.000000000000000000, 1.836970198721029441E-16, 0.000000000000000000 ) ) ;
#148 = ORIENTED_EDGE ( 'NONE', *, *, #267, .F. ) ;
#149 = CC_DESIGN_PERSON_AND_ORGANIZATION_ASSIGNMENT ( #108, #181, ( #47 ) ) ;
#150 = ADVANCED_BREP_SHAPE_REPRESENTATION ( 'LFR 5301-10KDD', ( #78, #152 ), #212 ) ;
#151 = DIRECTION ( 'NONE',  ( -1.000000000000000000, -1.836970198721029441E-16, 0.000000000000000000 ) ) ;
#152 = AXIS2_PLACEMENT_3D ( 'NONE', #65, #239, #67 ) ;
#153 = FACE_OUTER_BOUND ( 'NONE', #3, .T. ) ;
#154 = FACE_BOUND ( 'NONE', #7, .T. ) ;
#155 = SECURITY_CLASSIFICATION ( '', '', #36 ) ;
#156 = DIRECTION ( 'NONE',  ( -1.000000000000000000, -1.836970198721029441E-16, -0.000000000000000000 ) ) ;
#157 = APPROVAL_ROLE ( '' ) ;
#158 = PERSON_AND_ORGANIZATION ( #123, #128 ) ;
#159 = APPROVAL_PERSON_ORGANIZATION ( #101, #173, #287 ) ;
#160 = DIRECTION ( 'NONE',  ( 0.000000000000000000, 0.000000000000000000, 1.000000000000000000 ) ) ;
#161 = APPROVAL_STATUS ( 'not_yet_approved' ) ;
#162 = PERSON_AND_ORGANIZATION ( #123, #128 ) ;
#163 = APPLICATION_CONTEXT ( 'configuration controlled 3d designs of mechanical parts and assemblies' ) ;
#164 = DESIGN_CONTEXT ( 'detailed design', #163, 'design' ) ;
#165 = AXIS2_PLACEMENT_3D ( 'NONE', #97, #190, #74 ) ;
#166 = ORIENTED_EDGE ( 'NONE', *, *, #55, .T. ) ;
#167 =( NAMED_UNIT ( * ) SI_UNIT ( $, .STERADIAN. ) SOLID_ANGLE_UNIT ( ) );
#168 = MECHANICAL_CONTEXT ( 'NONE', #236, 'mechanical' ) ;
#169 = CARTESIAN_POINT ( 'NONE',  ( -8.900000000000000355, 1.102182119232621855E-16, 0.000000000000000000 ) ) ;
#170 = ORIENTED_EDGE ( 'NONE', *, *, #277, .T. ) ;
#171 = FACE_OUTER_BOUND ( 'NONE', #27, .T. ) ;
#172 = DIRECTION ( 'NONE',  ( -1.836970198721029441E-16, 1.000000000000000000, 0.000000000000000000 ) ) ;
#173 = APPROVAL ( #266, 'UNSPECIFIED' ) ;
#174 = CALENDAR_DATE ( 2021, 23, 8 ) ;
#175 = CARTESIAN_POINT ( 'NONE',  ( 0.000000000000000000, 0.000000000000000000, 0.000000000000000000 ) ) ;
#176 = PERSON_AND_ORGANIZATION_ROLE ( 'classification_officer' ) ;
#177 = FACE_OUTER_BOUND ( 'NONE', #72, .T. ) ;
#178 = ADVANCED_FACE ( 'NONE', ( #35, #177 ), #16, .T. ) ;
#179 = APPROVAL_ROLE ( '' ) ;
#180 = CARTESIAN_POINT ( 'NONE',  ( 9.500000000000003553, -20.39999999999999858, 0.000000000000000000 ) ) ;
#181 = PERSON_AND_ORGANIZATION_ROLE ( 'creator' ) ;
#182 = FACE_OUTER_BOUND ( 'NONE', #228, .T. ) ;
#183 = PERSON_AND_ORGANIZATION_ROLE ( 'design_supplier' ) ;
#184 = ORIENTED_EDGE ( 'NONE', *, *, #250, .F. ) ;
#185 = APPLICATION_PROTOCOL_DEFINITION ( 'international standard', 'config_control_design', 1994, #236 ) ;
#186 = DIRECTION ( 'NONE',  ( 1.000000000000000000, 1.836970198721029441E-16, 0.000000000000000000 ) ) ;
#187 = EDGE_LOOP ( 'NONE', ( #199 ) ) ;
#188 = EDGE_LOOP ( 'NONE', ( #223 ) ) ;
#189 = ADVANCED_FACE ( 'NONE', ( #20, #259 ), #129, .T. ) ;
#190 = DIRECTION ( 'NONE',  ( -1.000000000000000000, -1.836970198721029441E-16, -0.000000000000000000 ) ) ;
#191 = CARTESIAN_POINT ( 'NONE',  ( 8.900000000000002132, 0.000000000000000000, 0.000000000000000000 ) ) ;
#192 = EDGE_CURVE ( 'NONE', #26, #26, #244, .T. ) ;
#193 = CARTESIAN_POINT ( 'NONE',  ( -9.500000000000001776, 0.000000000000000000, 0.000000000000000000 ) ) ;
#194 = COORDINATED_UNIVERSAL_TIME_OFFSET ( 1, 0, .AHEAD. ) ;
#195 = CARTESIAN_POINT ( 'NONE',  ( 8.900000000000002132, 3.380025165646694664E-15, 0.000000000000000000 ) ) ;
#196 = DATE_AND_TIME ( #106, #281 ) ;
#197 = PERSON_AND_ORGANIZATION_ROLE ( 'design_owner' ) ;
#198 = COORDINATED_UNIVERSAL_TIME_OFFSET ( 1, 0, .AHEAD. ) ;
#199 = ORIENTED_EDGE ( 'NONE', *, *, #14, .T. ) ;
#200 = AXIS2_PLACEMENT_3D ( 'NONE', #207, #10, #11 ) ;
#201 = CARTESIAN_POINT ( 'NONE',  ( 3.999999999999998224, 0.000000000000000000, 20.99999999999999645 ) ) ;
#202 = ORIENTED_EDGE ( 'NONE', *, *, #260, .T. ) ;
#203 = ORIENTED_EDGE ( 'NONE', *, *, #217, .T. ) ;
#204 = AXIS2_PLACEMENT_3D ( 'NONE', #30, #96, #253 ) ;
#205 = CC_DESIGN_SECURITY_CLASSIFICATION ( #155, ( #47 ) ) ;
#206 = PERSON_AND_ORGANIZATION_ROLE ( 'creator' ) ;
#207 = CARTESIAN_POINT ( 'NONE',  ( -8.900000000000000355, 0.000000000000000000, 0.000000000000000000 ) ) ;
#208 = ADVANCED_FACE ( 'NONE', ( #60, #237 ), #282, .T. ) ;
#209 = FACE_OUTER_BOUND ( 'NONE', #52, .T. ) ;
#210 = CC_DESIGN_APPROVAL ( #77, ( #47 ) ) ;
#211 = DIRECTION ( 'NONE',  ( 1.836970198721029441E-16, -1.000000000000000000, 0.000000000000000000 ) ) ;
#212 =( GEOMETRIC_REPRESENTATION_CONTEXT ( 3 ) GLOBAL_UNCERTAINTY_ASSIGNED_CONTEXT ( ( #46 ) ) GLOBAL_UNIT_ASSIGNED_CONTEXT ( ( #242, #2, #167 ) ) REPRESENTATION_CONTEXT ( 'NONE', 'WORKASPACE' ) );
#213 = FACE_OUTER_BOUND ( 'NONE', #45, .T. ) ;
#214 = CC_DESIGN_APPROVAL ( #173, ( #155 ) ) ;
#215 = PERSON_AND_ORGANIZATION ( #123, #128 ) ;
#216 = CARTESIAN_POINT ( 'NONE',  ( 8.900000000000005684, 3.380025165646695059E-15, 0.000000000000000000 ) ) ;
#217 = EDGE_CURVE ( 'NONE', #145, #145, #61, .T. ) ;
#218 = FACE_OUTER_BOUND ( 'NONE', #8, .T. ) ;
#219 = PRODUCT_RELATED_PRODUCT_CATEGORY ( 'detail', '', ( #265 ) ) ;
#220 = APPROVAL_DATE_TIME ( #238, #173 ) ;
#221 = CC_DESIGN_DATE_AND_TIME_ASSIGNMENT ( #133, #263, ( #155 ) ) ;
#222 = DIRECTION ( 'NONE',  ( -1.836970198721029441E-16, 1.000000000000000000, 0.000000000000000000 ) ) ;
#223 = ORIENTED_EDGE ( 'NONE', *, *, #116, .T. ) ;
#224 = DIRECTION ( 'NONE',  ( -1.652117596168388002E-16, 1.000000000000000000, 0.000000000000000000 ) ) ;
#225 = CIRCLE ( 'NONE', #204, 6.599999999999999645 ) ;
#226 = LOCAL_TIME ( 16, 51, 13.00000000000000000, #194 ) ;
#227 = VERTEX_POINT ( 'NONE', #24 ) ;
#228 = EDGE_LOOP ( 'NONE', ( #94 ) ) ;
#229 = FACE_OUTER_BOUND ( 'NONE', #187, .T. ) ;
#230 = FACE_BOUND ( 'NONE', #114, .T. ) ;
#231 = PLANE ( 'NONE',  #141 ) ;
#232 = DIRECTION ( 'NONE',  ( -1.000000000000000000, -0.000000000000000000, -0.000000000000000000 ) ) ;
#233 = CARTESIAN_POINT ( 'NONE',  ( -3.999999999999998224, 0.000000000000000000, 0.000000000000000000 ) ) ;
#234 = DIRECTION ( 'NONE',  ( 0.000000000000000000, 0.000000000000000000, 1.000000000000000000 ) ) ;
#235 = ADVANCED_FACE ( 'NONE', ( #258, #33 ), #98, .F. ) ;
#236 = APPLICATION_CONTEXT ( 'configuration controlled 3d designs of mechanical parts and assemblies' ) ;
#237 = FACE_OUTER_BOUND ( 'NONE', #21, .T. ) ;
#238 = DATE_AND_TIME ( #174, #51 ) ;
#239 = DIRECTION ( 'NONE',  ( 0.000000000000000000, 0.000000000000000000, 1.000000000000000000 ) ) ;
#240 = ORIENTED_EDGE ( 'NONE', *, *, #55, .F. ) ;
#241 = COORDINATED_UNIVERSAL_TIME_OFFSET ( 1, 0, .AHEAD. ) ;
#242 =( LENGTH_UNIT ( ) NAMED_UNIT ( * ) SI_UNIT ( .MILLI., .METRE. ) );
#243 = EDGE_CURVE ( 'NONE', #115, #115, #247, .T. ) ;
#244 = CIRCLE ( 'NONE', #121, 20.99999999999999645 ) ;
#245 = DIRECTION ( 'NONE',  ( 0.000000000000000000, 0.000000000000000000, 1.000000000000000000 ) ) ;
#246 = ORIENTED_EDGE ( 'NONE', *, *, #250, .T. ) ;
#247 = CIRCLE ( 'NONE', #105, 20.99999999999999645 ) ;
#248 = DIRECTION ( 'NONE',  ( -2.891205793294678326E-16, 1.000000000000000000, 0.000000000000000000 ) ) ;
#249 = EDGE_LOOP ( 'NONE', ( #13 ) ) ;
#250 = EDGE_CURVE ( 'NONE', #138, #138, #118, .T. ) ;
#251 = AXIS2_PLACEMENT_3D ( 'NONE', #175, #58, #160 ) ;
#252 = CIRCLE ( 'NONE', #165, 20.39999999999999858 ) ;
#253 = DIRECTION ( 'NONE',  ( -2.628368902995162518E-16, 1.000000000000000000, 0.000000000000000000 ) ) ;
#254 = AXIS2_PLACEMENT_3D ( 'NONE', #86, #289, #44 ) ;
#255 = APPROVAL ( #99, 'UNSPECIFIED' ) ;
#256 = DIRECTION ( 'NONE',  ( 1.836970198721029688E-16, -1.000000000000000000, 0.000000000000000000 ) ) ;
#257 = AXIS2_PLACEMENT_3D ( 'NONE', #75, #54, #172 ) ;
#258 = FACE_OUTER_BOUND ( 'NONE', #122, .T. ) ;
#259 = FACE_OUTER_BOUND ( 'NONE', #276, .T. ) ;
#260 = EDGE_CURVE ( 'NONE', #111, #111, #132, .T. ) ;
#261 = CALENDAR_DATE ( 2021, 23, 8 ) ;
#262 = DIRECTION ( 'NONE',  ( 1.000000000000000000, 1.836970198721029441E-16, 0.000000000000000000 ) ) ;
#263 = DATE_TIME_ROLE ( 'classification_date' ) ;
#264 = CARTESIAN_POINT ( 'NONE',  ( -8.900000000000002132, 6.000000000000000000, 0.000000000000000000 ) ) ;
#265 = PRODUCT ( 'LFR 5301-10KDD', 'LFR 5301-10KDD', '', ( #168 ) ) ;
#266 = APPROVAL_STATUS ( 'not_yet_approved' ) ;
#267 = EDGE_CURVE ( 'NONE', #84, #84, #28, .T. ) ;
#268 = DIRECTION ( 'NONE',  ( -1.000000000000000000, -0.000000000000000000, -0.000000000000000000 ) ) ;
#269 = AXIS2_PLACEMENT_3D ( 'NONE', #216, #262, #19 ) ;
#270 = PRODUCT_DEFINITION_SHAPE ( 'NONE', 'NONE',  #70 ) ;
#271 = TOROIDAL_SURFACE ( 'NONE', #140, 6.599999999999999645, 0.5999999999999999778 ) ;
#272 = VERTEX_POINT ( 'NONE', #264 ) ;
#273 = EDGE_LOOP ( 'NONE', ( #240 ) ) ;
#274 = CARTESIAN_POINT ( 'NONE',  ( -8.900000000000000355, 1.102182119232619390E-16, 0.000000000000000000 ) ) ;
#275 = VERTEX_POINT ( 'NONE', #180 ) ;
#276 = EDGE_LOOP ( 'NONE', ( #43 ) ) ;
#277 = EDGE_CURVE ( 'NONE', #272, #272, #83, .T. ) ;
#278 = EDGE_LOOP ( 'NONE', ( #40 ) ) ;
#279 = DIRECTION ( 'NONE',  ( 1.700709290173340409E-16, -1.000000000000000000, 0.000000000000000000 ) ) ;
#280 = ADVANCED_FACE ( 'NONE', ( #109, #182 ), #64, .T. ) ;
#281 = LOCAL_TIME ( 16, 51, 13.00000000000000000, #198 ) ;
#282 = CYLINDRICAL_SURFACE ( 'NONE', #25, 20.99999999999999645 ) ;
#283 = DIRECTION ( 'NONE',  ( -1.000000000000000000, -0.000000000000000000, -0.000000000000000000 ) ) ;
#284 = CALENDAR_DATE ( 2021, 23, 8 ) ;
#285 = CARTESIAN_POINT ( 'NONE',  ( -3.999999999999998224, 0.000000000000000000, 20.99999999999999645 ) ) ;
#286 = AXIS2_PLACEMENT_3D ( 'NONE', #274, #186, #222 ) ;
#287 = APPROVAL_ROLE ( '' ) ;
#288 = LOCAL_TIME ( 16, 51, 13.00000000000000000, #71 ) ;
#289 = DIRECTION ( 'NONE',  ( -1.000000000000000000, -1.836970198721029441E-16, -0.000000000000000000 ) ) ;
ENDSEC;
END-ISO-10303-21;
