ISO-10303-21;
HEADER;
FILE_DESCRIPTION (( 'STEP AP203' ),
    '1' );
FILE_NAME ('LFR 5208-40KDD.step',
    '2021-08-23T14:51:12',
    ( '' ),
    ( '' ),
    'SwSTEP 2.0',
    'SolidWorks 2020',
    '' );
FILE_SCHEMA (( 'CONFIG_CONTROL_DESIGN' ));
ENDSEC;

DATA;
#1 = DIRECTION ( 'NONE',  ( -1.000000000000000000, -0.000000000000000000, -0.000000000000000000 ) ) ;
#2 = CYLINDRICAL_SURFACE ( 'NONE', #187, 20.00000000000000000 ) ;
#3 = DIRECTION ( 'NONE',  ( 1.927470528863118556E-16, -1.000000000000000000, 0.000000000000000000 ) ) ;
#4 = ORIENTED_EDGE ( 'NONE', *, *, #81, .T. ) ;
#5 = AXIS2_PLACEMENT_3D ( 'NONE', #165, #280, #360 ) ;
#6 = FACE_OUTER_BOUND ( 'NONE', #117, .T. ) ;
#7 = CLOSED_SHELL ( 'NONE', ( #126, #11, #85, #104, #19, #309, #307, #300, #344, #359, #214, #32, #242, #285 ) ) ;
#8 = EDGE_LOOP ( 'NONE', ( #140 ) ) ;
#9 = AXIS2_PLACEMENT_3D ( 'NONE', #10, #124, #244 ) ;
#10 = CARTESIAN_POINT ( 'NONE',  ( 18.99999999999999289, 36.00000000000001421, 0.000000000000000000 ) ) ;
#11 = ADVANCED_FACE ( 'NONE', ( #312, #237 ), #240, .T. ) ;
#12 = DIRECTION ( 'NONE',  ( -1.836970198721029441E-16, 1.000000000000000000, 0.000000000000000000 ) ) ;
#13 = PERSON_AND_ORGANIZATION_ROLE ( 'design_owner' ) ;
#14 = CARTESIAN_POINT ( 'NONE',  ( 17.99999999999999645, 6.796789735267808611E-15, 0.000000000000000000 ) ) ;
#15 = FACE_BOUND ( 'NONE', #35, .T. ) ;
#16 = APPROVAL_DATE_TIME ( #42, #120 ) ;
#17 = LOCAL_TIME ( 16, 51, 12.00000000000000000, #354 ) ;
#18 = CC_DESIGN_DATE_AND_TIME_ASSIGNMENT ( #296, #274, ( #203 ) ) ;
#19 = ADVANCED_FACE ( 'NONE', ( #173, #146 ), #2, .F. ) ;
#20 = VERTEX_POINT ( 'NONE', #53 ) ;
#21 = DATE_AND_TIME ( #256, #76 ) ;
#22 = CIRCLE ( 'NONE', #361, 49.00000000000000711 ) ;
#23 = CYLINDRICAL_SURFACE ( 'NONE', #67, 49.00000000000000000 ) ;
#24 = CIRCLE ( 'NONE', #325, 49.00000000000000000 ) ;
#25 = VERTEX_POINT ( 'NONE', #50 ) ;
#26 = APPROVAL_ROLE ( '' ) ;
#27 =( NAMED_UNIT ( * ) SI_UNIT ( $, .STERADIAN. ) SOLID_ANGLE_UNIT ( ) );
#28 = DIRECTION ( 'NONE',  ( 1.734723475976807094E-16, -1.000000000000000000, 0.000000000000000000 ) ) ;
#29 =( GEOMETRIC_REPRESENTATION_CONTEXT ( 3 ) GLOBAL_UNCERTAINTY_ASSIGNED_CONTEXT ( ( #208 ) ) GLOBAL_UNIT_ASSIGNED_CONTEXT ( ( #167, #304, #27 ) ) REPRESENTATION_CONTEXT ( 'NONE', 'WORKASPACE' ) );
#30 = EDGE_CURVE ( 'NONE', #306, #306, #224, .T. ) ;
#31 = CC_DESIGN_PERSON_AND_ORGANIZATION_ASSIGNMENT ( #156, #13, ( #326 ) ) ;
#32 = ADVANCED_FACE ( 'NONE', ( #149, #288 ), #308, .T. ) ;
#33 = APPLICATION_CONTEXT ( 'configuration controlled 3d designs of mechanical parts and assemblies' ) ;
#34 = DIRECTION ( 'NONE',  ( 0.000000000000000000, 0.000000000000000000, -1.000000000000000000 ) ) ;
#35 = EDGE_LOOP ( 'NONE', ( #239 ) ) ;
#36 = DIRECTION ( 'NONE',  ( -1.000000000000000000, -1.836970198721029441E-16, -0.000000000000000000 ) ) ;
#37 = CARTESIAN_POINT ( 'NONE',  ( -14.75635456337371387, 0.000000000000000000, 0.000000000000000000 ) ) ;
#38 = ORIENTED_EDGE ( 'NONE', *, *, #39, .F. ) ;
#39 = EDGE_CURVE ( 'NONE', #79, #79, #88, .T. ) ;
#40 = ORIENTED_EDGE ( 'NONE', *, *, #185, .F. ) ;
#41 = AXIS2_PLACEMENT_3D ( 'NONE', #305, #1, #34 ) ;
#42 = DATE_AND_TIME ( #66, #319 ) ;
#43 = ORIENTED_EDGE ( 'NONE', *, *, #202, .F. ) ;
#44 = LOCAL_TIME ( 16, 51, 12.00000000000000000, #194 ) ;
#45 = DIRECTION ( 'NONE',  ( -1.000000000000000000, -0.000000000000000000, -0.000000000000000000 ) ) ;
#46 = AXIS2_PLACEMENT_3D ( 'NONE', #231, #110, #139 ) ;
#47 = COORDINATED_UNIVERSAL_TIME_OFFSET ( 1, 0, .AHEAD. ) ;
#48 = DIRECTION ( 'NONE',  ( 0.000000000000000000, 0.000000000000000000, 1.000000000000000000 ) ) ;
#49 = CALENDAR_DATE ( 2021, 23, 8 ) ;
#50 = CARTESIAN_POINT ( 'NONE',  ( 14.75635456337371210, 0.000000000000000000, 49.00000000000000711 ) ) ;
#51 = SECURITY_CLASSIFICATION_LEVEL ( 'unclassified' ) ;
#52 = PERSON_AND_ORGANIZATION_ROLE ( 'classification_officer' ) ;
#53 = CARTESIAN_POINT ( 'NONE',  ( -18.00000000000000000, 1.836970198721037576E-16, -36.00000000000000711 ) ) ;
#54 = CARTESIAN_POINT ( 'NONE',  ( -18.00000000000000355, 20.00000000000000000, 0.000000000000000000 ) ) ;
#55 = ORIENTED_EDGE ( 'NONE', *, *, #250, .T. ) ;
#56 = EDGE_LOOP ( 'NONE', ( #168 ) ) ;
#57 = AXIS2_PLACEMENT_3D ( 'NONE', #290, #145, #269 ) ;
#58 = CC_DESIGN_PERSON_AND_ORGANIZATION_ASSIGNMENT ( #196, #228, ( #93 ) ) ;
#59 = FACE_OUTER_BOUND ( 'NONE', #338, .T. ) ;
#60 = DIRECTION ( 'NONE',  ( 1.927470528863118556E-16, -1.000000000000000000, 0.000000000000000000 ) ) ;
#61 = DESIGN_CONTEXT ( 'detailed design', #287, 'design' ) ;
#62 = FACE_OUTER_BOUND ( 'NONE', #84, .T. ) ;
#63 = CARTESIAN_POINT ( 'NONE',  ( -16.99999999999999645, 0.000000000000000000, 0.000000000000000000 ) ) ;
#64 = DIRECTION ( 'NONE',  ( -1.734723475976807094E-16, 1.000000000000000000, 0.000000000000000000 ) ) ;
#65 = DIRECTION ( 'NONE',  ( 1.000000000000000000, 0.000000000000000000, 0.000000000000000000 ) ) ;
#66 = CALENDAR_DATE ( 2021, 23, 8 ) ;
#67 = AXIS2_PLACEMENT_3D ( 'NONE', #330, #223, #48 ) ;
#68 = DIRECTION ( 'NONE',  ( 0.000000000000000000, 0.000000000000000000, 1.000000000000000000 ) ) ;
#69 = DIRECTION ( 'NONE',  ( -1.000000000000000000, -1.836970198721029441E-16, -0.000000000000000000 ) ) ;
#70 = CYLINDRICAL_SURFACE ( 'NONE', #334, 49.00000000000000000 ) ;
#71 = AXIS2_PLACEMENT_3D ( 'NONE', #211, #36, #178 ) ;
#72 = EDGE_CURVE ( 'NONE', #198, #198, #295, .T. ) ;
#73 = DIRECTION ( 'NONE',  ( 0.000000000000000000, 0.000000000000000000, 1.000000000000000000 ) ) ;
#74 = PERSON ( 'UNSPECIFIED', 'UNSPECIFIED', 'UNSPECIFIED', ('UNSPECIFIED'), ('UNSPECIFIED'), ('UNSPECIFIED') ) ;
#75 = ORIENTED_EDGE ( 'NONE', *, *, #321, .T. ) ;
#76 = LOCAL_TIME ( 16, 51, 12.00000000000000000, #158 ) ;
#77 = DIRECTION ( 'NONE',  ( -1.000000000000000000, 0.000000000000000000, -0.000000000000000000 ) ) ;
#78 = CARTESIAN_POINT ( 'NONE',  ( 18.00000000000000000, 0.000000000000000000, 48.00000000000000000 ) ) ;
#79 = VERTEX_POINT ( 'NONE', #83 ) ;
#80 = CC_DESIGN_PERSON_AND_ORGANIZATION_ASSIGNMENT ( #130, #255, ( #93 ) ) ;
#81 = EDGE_CURVE ( 'NONE', #257, #257, #137, .T. ) ;
#82 = VERTEX_POINT ( 'NONE', #195 ) ;
#83 = CARTESIAN_POINT ( 'NONE',  ( -18.00000000000000000, 0.000000000000000000, -48.00000000000000000 ) ) ;
#84 = EDGE_LOOP ( 'NONE', ( #152 ) ) ;
#85 = ADVANCED_FACE ( 'NONE', ( #266, #153 ), #148, .F. ) ;
#86 = CIRCLE ( 'NONE', #267, 20.00000000000000000 ) ;
#87 = EDGE_LOOP ( 'NONE', ( #150 ) ) ;
#88 = CIRCLE ( 'NONE', #41, 48.00000000000000000 ) ;
#89 = CARTESIAN_POINT ( 'NONE',  ( -19.00000000000000355, 0.000000000000000000, 0.000000000000000000 ) ) ;
#90 = EDGE_LOOP ( 'NONE', ( #258 ) ) ;
#91 = DIRECTION ( 'NONE',  ( 0.000000000000000000, 0.000000000000000000, -1.000000000000000000 ) ) ;
#92 = ORIENTED_EDGE ( 'NONE', *, *, #185, .T. ) ;
#93 = PRODUCT_DEFINITION_FORMATION_WITH_SPECIFIED_SOURCE ( 'ANY', '', #326, .NOT_KNOWN. ) ;
#94 = APPROVAL_PERSON_ORGANIZATION ( #246, #234, #26 ) ;
#95 = CARTESIAN_POINT ( 'NONE',  ( -18.00000000000000000, 1.836970198721037083E-16, 0.000000000000000000 ) ) ;
#96 = CARTESIAN_POINT ( 'NONE',  ( -18.00000000000000000, 1.836970198721037823E-16, 0.000000000000000000 ) ) ;
#97 = CARTESIAN_POINT ( 'NONE',  ( -16.99999999999999645, 0.000000000000000000, 0.000000000000000000 ) ) ;
#98 = DATE_AND_TIME ( #320, #116 ) ;
#99 = EDGE_LOOP ( 'NONE', ( #316 ) ) ;
#100 = FACE_OUTER_BOUND ( 'NONE', #56, .T. ) ;
#101 = ORIENTED_EDGE ( 'NONE', *, *, #321, .F. ) ;
#102 = FACE_OUTER_BOUND ( 'NONE', #205, .T. ) ;
#103 = DATE_AND_TIME ( #105, #17 ) ;
#104 = ADVANCED_FACE ( 'NONE', ( #15, #6 ), #122, .F. ) ;
#105 = CALENDAR_DATE ( 2021, 23, 8 ) ;
#106 = FACE_OUTER_BOUND ( 'NONE', #121, .T. ) ;
#107 = AXIS2_PLACEMENT_3D ( 'NONE', #95, #317, #64 ) ;
#108 = VERTEX_POINT ( 'NONE', #225 ) ;
#109 = DIRECTION ( 'NONE',  ( -0.000000000000000000, 0.000000000000000000, 1.000000000000000000 ) ) ;
#110 = DIRECTION ( 'NONE',  ( 1.000000000000000000, 1.836970198721029441E-16, 0.000000000000000000 ) ) ;
#111 = AXIS2_PLACEMENT_3D ( 'NONE', #63, #289, #265 ) ;
#112 = FACE_OUTER_BOUND ( 'NONE', #293, .T. ) ;
#113 = DIRECTION ( 'NONE',  ( 1.000000000000000000, 0.000000000000000000, 0.000000000000000000 ) ) ;
#114 = ORGANIZATION ( 'UNSPECIFIED', 'UNSPECIFIED', '' ) ;
#115 = AXIS2_PLACEMENT_3D ( 'NONE', #279, #252, #135 ) ;
#116 = LOCAL_TIME ( 16, 51, 12.00000000000000000, #47 ) ;
#117 = EDGE_LOOP ( 'NONE', ( #199 ) ) ;
#118 = AXIS2_PLACEMENT_3D ( 'NONE', #184, #352, #349 ) ;
#119 = CARTESIAN_POINT ( 'NONE',  ( -19.00000000000000355, 0.000000000000000000, 0.000000000000000000 ) ) ;
#120 = APPROVAL ( #188, 'UNSPECIFIED' ) ;
#121 = EDGE_LOOP ( 'NONE', ( #4 ) ) ;
#122 = PLANE ( 'NONE',  #9 ) ;
#123 = EDGE_LOOP ( 'NONE', ( #43 ) ) ;
#124 = DIRECTION ( 'NONE',  ( -1.000000000000000000, -1.836970198721029441E-16, 0.000000000000000000 ) ) ;
#125 = FACE_OUTER_BOUND ( 'NONE', #233, .T. ) ;
#126 = ADVANCED_FACE ( 'NONE', ( #62, #347 ), #241, .T. ) ;
#127 = APPLICATION_PROTOCOL_DEFINITION ( 'international standard', 'config_control_design', 1994, #287 ) ;
#128 = DIRECTION ( 'NONE',  ( -1.000000000000000000, -0.000000000000000000, -0.000000000000000000 ) ) ;
#129 = FACE_OUTER_BOUND ( 'NONE', #275, .T. ) ;
#130 = PERSON_AND_ORGANIZATION ( #74, #114 ) ;
#131 = ORIENTED_EDGE ( 'NONE', *, *, #253, .T. ) ;
#132 = DIRECTION ( 'NONE',  ( 1.000000000000000000, 0.000000000000000000, 0.000000000000000000 ) ) ;
#133 = PERSON_AND_ORGANIZATION ( #74, #114 ) ;
#134 = EDGE_CURVE ( 'NONE', #192, #192, #24, .T. ) ;
#135 = DIRECTION ( 'NONE',  ( 0.000000000000000000, 0.000000000000000000, 1.000000000000000000 ) ) ;
#136 = CARTESIAN_POINT ( 'NONE',  ( -18.99999999999998934, -36.00000000000000711, 0.000000000000000000 ) ) ;
#137 = CIRCLE ( 'NONE', #118, 49.00000000000000000 ) ;
#138 = DIRECTION ( 'NONE',  ( 0.000000000000000000, 0.000000000000000000, 1.000000000000000000 ) ) ;
#139 = DIRECTION ( 'NONE',  ( -1.652117596168387756E-16, 1.000000000000000000, 0.000000000000000000 ) ) ;
#140 = ORIENTED_EDGE ( 'NONE', *, *, #362, .T. ) ;
#141 = VERTEX_POINT ( 'NONE', #54 ) ;
#142 = ORIENTED_EDGE ( 'NONE', *, *, #277, .F. ) ;
#143 = CC_DESIGN_SECURITY_CLASSIFICATION ( #203, ( #93 ) ) ;
#144 = ORIENTED_EDGE ( 'NONE', *, *, #39, .T. ) ;
#145 = DIRECTION ( 'NONE',  ( 1.000000000000000000, 1.836970198721029441E-16, 0.000000000000000000 ) ) ;
#146 = FACE_OUTER_BOUND ( 'NONE', #286, .T. ) ;
#147 = DIRECTION ( 'NONE',  ( 1.000000000000000000, 0.000000000000000000, 0.000000000000000000 ) ) ;
#148 = PLANE ( 'NONE',  #57 ) ;
#149 = FACE_OUTER_BOUND ( 'NONE', #99, .T. ) ;
#150 = ORIENTED_EDGE ( 'NONE', *, *, #362, .F. ) ;
#151 = APPROVAL_PERSON_ORGANIZATION ( #222, #332, #191 ) ;
#152 = ORIENTED_EDGE ( 'NONE', *, *, #72, .F. ) ;
#153 = FACE_OUTER_BOUND ( 'NONE', #235, .T. ) ;
#154 = AXIS2_PLACEMENT_3D ( 'NONE', #243, #180, #68 ) ;
#155 = AXIS2_PLACEMENT_3D ( 'NONE', #322, #69, #311 ) ;
#156 = PERSON_AND_ORGANIZATION ( #74, #114 ) ;
#157 = FACE_OUTER_BOUND ( 'NONE', #337, .T. ) ;
#158 = COORDINATED_UNIVERSAL_TIME_OFFSET ( 1, 0, .AHEAD. ) ;
#159 = AXIS2_PLACEMENT_3D ( 'NONE', #247, #219, #132 ) ;
#160 = EDGE_LOOP ( 'NONE', ( #232 ) ) ;
#161 = TOROIDAL_SURFACE ( 'NONE', #111, 48.00000000000000000, 1.000000000000000000 ) ;
#162 = CC_DESIGN_APPROVAL ( #120, ( #353 ) ) ;
#163 = CARTESIAN_POINT ( 'NONE',  ( -14.75635456337371387, 0.000000000000000000, 49.00000000000000711 ) ) ;
#164 = CC_DESIGN_PERSON_AND_ORGANIZATION_ASSIGNMENT ( #197, #52, ( #203 ) ) ;
#165 = CARTESIAN_POINT ( 'NONE',  ( 18.99999999999999645, 6.980486755139911333E-15, 0.000000000000000000 ) ) ;
#166 = CIRCLE ( 'NONE', #107, 20.00000000000000000 ) ;
#167 =( LENGTH_UNIT ( ) NAMED_UNIT ( * ) SI_UNIT ( .MILLI., .METRE. ) );
#168 = ORIENTED_EDGE ( 'NONE', *, *, #284, .F. ) ;
#169 = EDGE_LOOP ( 'NONE', ( #131 ) ) ;
#170 = AXIS2_PLACEMENT_3D ( 'NONE', #37, #177, #264 ) ;
#171 = ORIENTED_EDGE ( 'NONE', *, *, #314, .T. ) ;
#172 = AXIS2_PLACEMENT_3D ( 'NONE', #350, #65, #323 ) ;
#173 = FACE_OUTER_BOUND ( 'NONE', #169, .T. ) ;
#174 = CIRCLE ( 'NONE', #5, 36.00000000000000711 ) ;
#175 = ADVANCED_BREP_SHAPE_REPRESENTATION ( 'LFR 5208-40KDD', ( #238, #159 ), #29 ) ;
#176 = CIRCLE ( 'NONE', #273, 36.00000000000000711 ) ;
#177 = DIRECTION ( 'NONE',  ( -1.000000000000000000, -0.000000000000000000, -0.000000000000000000 ) ) ;
#178 = DIRECTION ( 'NONE',  ( 1.927470528863118556E-16, -1.000000000000000000, 0.000000000000000000 ) ) ;
#179 = EDGE_LOOP ( 'NONE', ( #142 ) ) ;
#180 = DIRECTION ( 'NONE',  ( -1.000000000000000000, -0.000000000000000000, -0.000000000000000000 ) ) ;
#181 = TOROIDAL_SURFACE ( 'NONE', #115, 62.50000000000000000, 20.00000000000000000 ) ;
#182 = AXIS2_PLACEMENT_3D ( 'NONE', #336, #77, #109 ) ;
#183 = CARTESIAN_POINT ( 'NONE',  ( -18.00000000000000000, 1.836970198721037576E-16, 0.000000000000000000 ) ) ;
#184 = CARTESIAN_POINT ( 'NONE',  ( 16.99999999999999645, 0.000000000000000000, 0.000000000000000000 ) ) ;
#185 = EDGE_CURVE ( 'NONE', #141, #141, #166, .T. ) ;
#186 = PLANE ( 'NONE',  #172 ) ;
#187 = AXIS2_PLACEMENT_3D ( 'NONE', #119, #313, #28 ) ;
#188 = APPROVAL_STATUS ( 'not_yet_approved' ) ;
#189 = PERSON_AND_ORGANIZATION ( #74, #114 ) ;
#190 = FACE_OUTER_BOUND ( 'NONE', #160, .T. ) ;
#191 = APPROVAL_ROLE ( '' ) ;
#192 = VERTEX_POINT ( 'NONE', #200 ) ;
#193 = CC_DESIGN_PERSON_AND_ORGANIZATION_ASSIGNMENT ( #189, #351, ( #353 ) ) ;
#194 = COORDINATED_UNIVERSAL_TIME_OFFSET ( 1, 0, .AHEAD. ) ;
#195 = CARTESIAN_POINT ( 'NONE',  ( 19.00000000000000355, -36.00000000000000000, 0.000000000000000000 ) ) ;
#196 = PERSON_AND_ORGANIZATION ( #74, #114 ) ;
#197 = PERSON_AND_ORGANIZATION ( #74, #114 ) ;
#198 = VERTEX_POINT ( 'NONE', #136 ) ;
#199 = ORIENTED_EDGE ( 'NONE', *, *, #314, .F. ) ;
#200 = CARTESIAN_POINT ( 'NONE',  ( -16.99999999999999645, 0.000000000000000000, -49.00000000000000000 ) ) ;
#201 = ORIENTED_EDGE ( 'NONE', *, *, #81, .F. ) ;
#202 = EDGE_CURVE ( 'NONE', #229, #229, #270, .T. ) ;
#203 = SECURITY_CLASSIFICATION ( '', '', #51 ) ;
#204 = AXIS2_PLACEMENT_3D ( 'NONE', #271, #128, #248 ) ;
#205 = EDGE_LOOP ( 'NONE', ( #310 ) ) ;
#206 = EDGE_LOOP ( 'NONE', ( #55 ) ) ;
#207 = DIRECTION ( 'NONE',  ( -1.000000000000000000, -1.836970198721029441E-16, -0.000000000000000000 ) ) ;
#208 = UNCERTAINTY_MEASURE_WITH_UNIT (LENGTH_MEASURE( 1.000000000000000082E-05 ), #167, 'distance_accuracy_value', 'NONE');
#209 = CIRCLE ( 'NONE', #346, 48.00000000000000000 ) ;
#210 = CARTESIAN_POINT ( 'NONE',  ( 18.00000000000000000, 0.000000000000000000, 0.000000000000000000 ) ) ;
#211 = CARTESIAN_POINT ( 'NONE',  ( -18.99999999999999645, 1.214805423956104465E-30, 0.000000000000000000 ) ) ;
#212 = EDGE_LOOP ( 'NONE', ( #101 ) ) ;
#213 = FACE_OUTER_BOUND ( 'NONE', #212, .T. ) ;
#214 = ADVANCED_FACE ( 'NONE', ( #100, #294 ), #357, .T. ) ;
#215 = FACE_BOUND ( 'NONE', #90, .T. ) ;
#216 = DIRECTION ( 'NONE',  ( 1.000000000000000000, 0.000000000000000000, 0.000000000000000000 ) ) ;
#217 = APPROVAL_ROLE ( '' ) ;
#218 = DIRECTION ( 'NONE',  ( 1.734723475976807094E-16, -1.000000000000000000, 0.000000000000000000 ) ) ;
#219 = DIRECTION ( 'NONE',  ( 0.000000000000000000, 0.000000000000000000, 1.000000000000000000 ) ) ;
#220 = PRODUCT_DEFINITION_SHAPE ( 'NONE', 'NONE',  #353 ) ;
#221 = DIRECTION ( 'NONE',  ( 1.000000000000000000, 1.836970198721029441E-16, 0.000000000000000000 ) ) ;
#222 = PERSON_AND_ORGANIZATION ( #74, #114 ) ;
#223 = DIRECTION ( 'NONE',  ( -1.000000000000000000, -0.000000000000000000, -0.000000000000000000 ) ) ;
#224 = CIRCLE ( 'NONE', #170, 49.00000000000000711 ) ;
#225 = CARTESIAN_POINT ( 'NONE',  ( 18.00000000000000000, -19.99999999999999289, 0.000000000000000000 ) ) ;
#226 = APPROVAL_DATE_TIME ( #21, #234 ) ;
#227 = CARTESIAN_POINT ( 'NONE',  ( 16.99999999999999645, 0.000000000000000000, 49.00000000000000000 ) ) ;
#228 = PERSON_AND_ORGANIZATION_ROLE ( 'design_supplier' ) ;
#229 = VERTEX_POINT ( 'NONE', #333 ) ;
#230 = CIRCLE ( 'NONE', #46, 21.00000000000000000 ) ;
#231 = CARTESIAN_POINT ( 'NONE',  ( -19.00000000000000000, 7.222237291452134449E-31, 0.000000000000000000 ) ) ;
#232 = ORIENTED_EDGE ( 'NONE', *, *, #30, .F. ) ;
#233 = EDGE_LOOP ( 'NONE', ( #144 ) ) ;
#234 = APPROVAL ( #318, 'UNSPECIFIED' ) ;
#235 = EDGE_LOOP ( 'NONE', ( #342 ) ) ;
#236 = AXIS2_PLACEMENT_3D ( 'NONE', #89, #207, #60 ) ;
#237 = FACE_OUTER_BOUND ( 'NONE', #283, .T. ) ;
#238 = MANIFOLD_SOLID_BREP ( 'Fillet1', #7 ) ;
#239 = ORIENTED_EDGE ( 'NONE', *, *, #202, .T. ) ;
#240 = CYLINDRICAL_SURFACE ( 'NONE', #236, 36.00000000000000711 ) ;
#241 = CYLINDRICAL_SURFACE ( 'NONE', #281, 36.00000000000000711 ) ;
#242 = ADVANCED_FACE ( 'NONE', ( #157, #59 ), #161, .T. ) ;
#243 = CARTESIAN_POINT ( 'NONE',  ( 18.00000000000000355, 6.796789735267810189E-15, 0.000000000000000000 ) ) ;
#244 = DIRECTION ( 'NONE',  ( 1.836970198721029441E-16, -1.000000000000000000, 0.000000000000000000 ) ) ;
#245 = CARTESIAN_POINT ( 'NONE',  ( -19.00000000000000355, 0.000000000000000000, 0.000000000000000000 ) ) ;
#246 = PERSON_AND_ORGANIZATION ( #74, #114 ) ;
#247 = CARTESIAN_POINT ( 'NONE',  ( 0.000000000000000000, 0.000000000000000000, 0.000000000000000000 ) ) ;
#248 = DIRECTION ( 'NONE',  ( 0.000000000000000000, 0.000000000000000000, 1.000000000000000000 ) ) ;
#249 = PRODUCT_RELATED_PRODUCT_CATEGORY ( 'detail', '', ( #326 ) ) ;
#250 = EDGE_CURVE ( 'NONE', #278, #278, #315, .T. ) ;
#251 = FACE_BOUND ( 'NONE', #206, .T. ) ;
#252 = DIRECTION ( 'NONE',  ( -1.000000000000000000, -0.000000000000000000, -0.000000000000000000 ) ) ;
#253 = EDGE_CURVE ( 'NONE', #108, #108, #86, .T. ) ;
#254 = AXIS2_PLACEMENT_3D ( 'NONE', #259, #367, #343 ) ;
#255 = PERSON_AND_ORGANIZATION_ROLE ( 'creator' ) ;
#256 = CALENDAR_DATE ( 2021, 23, 8 ) ;
#257 = VERTEX_POINT ( 'NONE', #227 ) ;
#258 = ORIENTED_EDGE ( 'NONE', *, *, #277, .T. ) ;
#259 = CARTESIAN_POINT ( 'NONE',  ( 17.99999999999999645, 6.796789735267808611E-15, 0.000000000000000000 ) ) ;
#260 = EDGE_LOOP ( 'NONE', ( #171 ) ) ;
#261 = EDGE_LOOP ( 'NONE', ( #201 ) ) ;
#262 = DIRECTION ( 'NONE',  ( 0.000000000000000000, 0.000000000000000000, 1.000000000000000000 ) ) ;
#263 = DIRECTION ( 'NONE',  ( -1.000000000000000000, -1.836970198721029441E-16, -0.000000000000000000 ) ) ;
#264 = DIRECTION ( 'NONE',  ( 0.000000000000000000, 0.000000000000000000, 1.000000000000000000 ) ) ;
#265 = DIRECTION ( 'NONE',  ( 0.000000000000000000, 0.000000000000000000, -1.000000000000000000 ) ) ;
#266 = FACE_BOUND ( 'NONE', #268, .T. ) ;
#267 = AXIS2_PLACEMENT_3D ( 'NONE', #14, #292, #218 ) ;
#268 = EDGE_LOOP ( 'NONE', ( #75 ) ) ;
#269 = DIRECTION ( 'NONE',  ( -1.836970198721029441E-16, 1.000000000000000000, 0.000000000000000000 ) ) ;
#270 = CIRCLE ( 'NONE', #155, 21.00000000000000000 ) ;
#271 = CARTESIAN_POINT ( 'NONE',  ( 16.99999999999999645, 0.000000000000000000, 0.000000000000000000 ) ) ;
#272 = SHAPE_DEFINITION_REPRESENTATION ( #220, #175 ) ;
#273 = AXIS2_PLACEMENT_3D ( 'NONE', #183, #113, #91 ) ;
#274 = DATE_TIME_ROLE ( 'classification_date' ) ;
#275 = EDGE_LOOP ( 'NONE', ( #40 ) ) ;
#276 = MECHANICAL_CONTEXT ( 'NONE', #33, 'mechanical' ) ;
#277 = EDGE_CURVE ( 'NONE', #20, #20, #176, .T. ) ;
#278 = VERTEX_POINT ( 'NONE', #335 ) ;
#279 = CARTESIAN_POINT ( 'NONE',  ( 0.000000000000000000, 0.000000000000000000, 0.000000000000000000 ) ) ;
#280 = DIRECTION ( 'NONE',  ( -1.000000000000000000, -1.836970198721029441E-16, -0.000000000000000000 ) ) ;
#281 = AXIS2_PLACEMENT_3D ( 'NONE', #245, #263, #3 ) ;
#282 = CARTESIAN_POINT ( 'NONE',  ( -19.00000000000000355, 21.00000000000000000, 0.000000000000000000 ) ) ;
#283 = EDGE_LOOP ( 'NONE', ( #368 ) ) ;
#284 = EDGE_CURVE ( 'NONE', #331, #331, #209, .T. ) ;
#285 = ADVANCED_FACE ( 'NONE', ( #213, #129 ), #328, .T. ) ;
#286 = EDGE_LOOP ( 'NONE', ( #92 ) ) ;
#287 = APPLICATION_CONTEXT ( 'configuration controlled 3d designs of mechanical parts and assemblies' ) ;
#288 = FACE_OUTER_BOUND ( 'NONE', #123, .T. ) ;
#289 = DIRECTION ( 'NONE',  ( 1.000000000000000000, 0.000000000000000000, 0.000000000000000000 ) ) ;
#290 = CARTESIAN_POINT ( 'NONE',  ( -19.00000000000000355, 20.00000000000000000, 0.000000000000000000 ) ) ;
#291 = AXIS2_PLACEMENT_3D ( 'NONE', #96, #221, #12 ) ;
#292 = DIRECTION ( 'NONE',  ( 1.000000000000000000, 1.836970198721029441E-16, 0.000000000000000000 ) ) ;
#293 = EDGE_LOOP ( 'NONE', ( #340 ) ) ;
#294 = FACE_OUTER_BOUND ( 'NONE', #261, .T. ) ;
#295 = CIRCLE ( 'NONE', #71, 36.00000000000000711 ) ;
#296 = DATE_AND_TIME ( #49, #44 ) ;
#297 = CARTESIAN_POINT ( 'NONE',  ( -18.99999999999999289, 0.000000000000000000, 0.000000000000000000 ) ) ;
#298 = COORDINATED_UNIVERSAL_TIME_OFFSET ( 1, 0, .AHEAD. ) ;
#299 = FACE_OUTER_BOUND ( 'NONE', #8, .T. ) ;
#300 = ADVANCED_FACE ( 'NONE', ( #125, #215 ), #186, .F. ) ;
#301 = CARTESIAN_POINT ( 'NONE',  ( 14.75635456337371210, 0.000000000000000000, 0.000000000000000000 ) ) ;
#302 = VERTEX_POINT ( 'NONE', #282 ) ;
#303 = CC_DESIGN_DATE_AND_TIME_ASSIGNMENT ( #103, #329, ( #353 ) ) ;
#304 =( NAMED_UNIT ( * ) PLANE_ANGLE_UNIT ( ) SI_UNIT ( $, .RADIAN. ) );
#305 = CARTESIAN_POINT ( 'NONE',  ( -18.00000000000000000, 0.000000000000000000, 0.000000000000000000 ) ) ;
#306 = VERTEX_POINT ( 'NONE', #163 ) ;
#307 = ADVANCED_FACE ( 'NONE', ( #102, #327 ), #70, .T. ) ;
#308 = TOROIDAL_SURFACE ( 'NONE', #254, 21.00000000000000000, 1.000000000000000000 ) ;
#309 = ADVANCED_FACE ( 'NONE', ( #190, #299 ), #181, .F. ) ;
#310 = ORIENTED_EDGE ( 'NONE', *, *, #134, .T. ) ;
#311 = DIRECTION ( 'NONE',  ( 1.652117596168387756E-16, -1.000000000000000000, 0.000000000000000000 ) ) ;
#312 = FACE_OUTER_BOUND ( 'NONE', #260, .T. ) ;
#313 = DIRECTION ( 'NONE',  ( -1.000000000000000000, -1.836970198721029441E-16, -0.000000000000000000 ) ) ;
#314 = EDGE_CURVE ( 'NONE', #82, #82, #174, .T. ) ;
#315 = CIRCLE ( 'NONE', #154, 36.00000000000000711 ) ;
#316 = ORIENTED_EDGE ( 'NONE', *, *, #253, .F. ) ;
#317 = DIRECTION ( 'NONE',  ( -1.000000000000000000, -1.836970198721029441E-16, -0.000000000000000000 ) ) ;
#318 = APPROVAL_STATUS ( 'not_yet_approved' ) ;
#319 = LOCAL_TIME ( 16, 51, 12.00000000000000000, #298 ) ;
#320 = CALENDAR_DATE ( 2021, 23, 8 ) ;
#321 = EDGE_CURVE ( 'NONE', #302, #302, #230, .T. ) ;
#322 = CARTESIAN_POINT ( 'NONE',  ( 19.00000000000000000, 6.980486755139911333E-15, 0.000000000000000000 ) ) ;
#323 = DIRECTION ( 'NONE',  ( 0.000000000000000000, 0.000000000000000000, -1.000000000000000000 ) ) ;
#324 = APPROVAL_DATE_TIME ( #98, #332 ) ;
#325 = AXIS2_PLACEMENT_3D ( 'NONE', #97, #216, #348 ) ;
#326 = PRODUCT ( 'LFR 5208-40KDD', 'LFR 5208-40KDD', '', ( #276 ) ) ;
#327 = FACE_OUTER_BOUND ( 'NONE', #364, .T. ) ;
#328 = TOROIDAL_SURFACE ( 'NONE', #291, 21.00000000000000000, 1.000000000000000000 ) ;
#329 = DATE_TIME_ROLE ( 'creation_date' ) ;
#330 = CARTESIAN_POINT ( 'NONE',  ( -18.99999999999999289, 0.000000000000000000, 0.000000000000000000 ) ) ;
#331 = VERTEX_POINT ( 'NONE', #78 ) ;
#332 = APPROVAL ( #356, 'UNSPECIFIED' ) ;
#333 = CARTESIAN_POINT ( 'NONE',  ( 19.00000000000000355, -20.99999999999999289, 0.000000000000000000 ) ) ;
#334 = AXIS2_PLACEMENT_3D ( 'NONE', #297, #45, #73 ) ;
#335 = CARTESIAN_POINT ( 'NONE',  ( 18.00000000000000355, 6.796789735267810189E-15, 36.00000000000000711 ) ) ;
#336 = CARTESIAN_POINT ( 'NONE',  ( 18.00000000000000000, 36.00000000000001421, 0.000000000000000000 ) ) ;
#337 = EDGE_LOOP ( 'NONE', ( #365 ) ) ;
#338 = EDGE_LOOP ( 'NONE', ( #38 ) ) ;
#339 = APPLICATION_PROTOCOL_DEFINITION ( 'international standard', 'config_control_design', 1994, #33 ) ;
#340 = ORIENTED_EDGE ( 'NONE', *, *, #284, .T. ) ;
#341 = ORIENTED_EDGE ( 'NONE', *, *, #30, .T. ) ;
#342 = ORIENTED_EDGE ( 'NONE', *, *, #72, .T. ) ;
#343 = DIRECTION ( 'NONE',  ( 1.836970198721029441E-16, -1.000000000000000000, 0.000000000000000000 ) ) ;
#344 = ADVANCED_FACE ( 'NONE', ( #112, #251 ), #363, .F. ) ;
#345 = APPROVAL_PERSON_ORGANIZATION ( #133, #120, #217 ) ;
#346 = AXIS2_PLACEMENT_3D ( 'NONE', #210, #147, #262 ) ;
#347 = FACE_OUTER_BOUND ( 'NONE', #179, .T. ) ;
#348 = DIRECTION ( 'NONE',  ( 0.000000000000000000, 0.000000000000000000, -1.000000000000000000 ) ) ;
#349 = DIRECTION ( 'NONE',  ( 0.000000000000000000, 0.000000000000000000, 1.000000000000000000 ) ) ;
#350 = CARTESIAN_POINT ( 'NONE',  ( -18.00000000000000000, 36.00000000000001421, 0.000000000000000000 ) ) ;
#351 = PERSON_AND_ORGANIZATION_ROLE ( 'creator' ) ;
#352 = DIRECTION ( 'NONE',  ( -1.000000000000000000, -0.000000000000000000, -0.000000000000000000 ) ) ;
#353 = PRODUCT_DEFINITION ( 'UNKNOWN', '', #93, #61 ) ;
#354 = COORDINATED_UNIVERSAL_TIME_OFFSET ( 1, 0, .AHEAD. ) ;
#355 = FACE_OUTER_BOUND ( 'NONE', #87, .T. ) ;
#356 = APPROVAL_STATUS ( 'not_yet_approved' ) ;
#357 = TOROIDAL_SURFACE ( 'NONE', #204, 48.00000000000000000, 1.000000000000000000 ) ;
#358 = DIRECTION ( 'NONE',  ( -1.000000000000000000, -0.000000000000000000, -0.000000000000000000 ) ) ;
#359 = ADVANCED_FACE ( 'NONE', ( #106, #355 ), #23, .T. ) ;
#360 = DIRECTION ( 'NONE',  ( 1.927470528863118556E-16, -1.000000000000000000, 0.000000000000000000 ) ) ;
#361 = AXIS2_PLACEMENT_3D ( 'NONE', #301, #358, #138 ) ;
#362 = EDGE_CURVE ( 'NONE', #25, #25, #22, .T. ) ;
#363 = PLANE ( 'NONE',  #182 ) ;
#364 = EDGE_LOOP ( 'NONE', ( #341 ) ) ;
#365 = ORIENTED_EDGE ( 'NONE', *, *, #134, .F. ) ;
#366 = CC_DESIGN_APPROVAL ( #332, ( #93 ) ) ;
#367 = DIRECTION ( 'NONE',  ( -1.000000000000000000, -1.836970198721029441E-16, -0.000000000000000000 ) ) ;
#368 = ORIENTED_EDGE ( 'NONE', *, *, #250, .F. ) ;
#369 = CC_DESIGN_APPROVAL ( #234, ( #203 ) ) ;
ENDSEC;
END-ISO-10303-21;
