ISO-10303-21;
HEADER;
FILE_DESCRIPTION (( 'STEP AP203' ),
    '1' );
FILE_NAME ('LFR 5306-50KDD.step',
    '2021-08-23T14:51:14',
    ( '' ),
    ( '' ),
    'SwSTEP 2.0',
    'SolidWorks 2020',
    '' );
FILE_SCHEMA (( 'CONFIG_CONTROL_DESIGN' ));
ENDSEC;

DATA;
#1 = EDGE_LOOP ( 'NONE', ( #265 ) ) ;
#2 = DATE_AND_TIME ( #106, #275 ) ;
#3 = UNCERTAINTY_MEASURE_WITH_UNIT (LENGTH_MEASURE( 1.000000000000000082E-05 ), #218, 'distance_accuracy_value', 'NONE');
#4 = CARTESIAN_POINT ( 'NONE',  ( 21.90000000000000924, -55.00000000000000000, 0.000000000000000000 ) ) ;
#5 = CARTESIAN_POINT ( 'NONE',  ( 17.85357107135713051, 0.000000000000000000, 55.00000000000000000 ) ) ;
#6 = FACE_OUTER_BOUND ( 'NONE', #228, .T. ) ;
#7 = ORIENTED_EDGE ( 'NONE', *, *, #283, .T. ) ;
#8 = FACE_OUTER_BOUND ( 'NONE', #157, .T. ) ;
#9 = AXIS2_PLACEMENT_3D ( 'NONE', #83, #210, #101 ) ;
#10 = CARTESIAN_POINT ( 'NONE',  ( 23.00000000000000000, 2.020667218593132508E-16, 0.000000000000000000 ) ) ;
#11 = ADVANCED_FACE ( 'NONE', ( #78, #279 ), #144, .F. ) ;
#12 = FACE_OUTER_BOUND ( 'NONE', #95, .T. ) ;
#13 = FACE_OUTER_BOUND ( 'NONE', #77, .T. ) ;
#14 = APPROVAL_PERSON_ORGANIZATION ( #38, #22, #240 ) ;
#15 = CARTESIAN_POINT ( 'NONE',  ( -22.99999999999999645, 0.000000000000000000, 0.000000000000000000 ) ) ;
#16 = FACE_OUTER_BOUND ( 'NONE', #116, .T. ) ;
#17 = TOROIDAL_SURFACE ( 'NONE', #107, 72.50000000000000000, 25.00000000000000000 ) ;
#18 = DIRECTION ( 'NONE',  ( -1.000000000000000000, -0.000000000000000000, -0.000000000000000000 ) ) ;
#19 = PERSON_AND_ORGANIZATION ( #65, #35 ) ;
#20 = DIRECTION ( 'NONE',  ( 1.836970198721029934E-16, -1.000000000000000000, 0.000000000000000000 ) ) ;
#21 = CARTESIAN_POINT ( 'NONE',  ( 23.00000000000000355, -21.09999999999999432, 0.000000000000000000 ) ) ;
#22 = APPROVAL ( #192, 'UNSPECIFIED' ) ;
#23 = VERTEX_POINT ( 'NONE', #44 ) ;
#24 = CIRCLE ( 'NONE', #9, 21.10000000000000142 ) ;
#25 = VERTEX_POINT ( 'NONE', #5 ) ;
#26 = ORIENTED_EDGE ( 'NONE', *, *, #141, .T. ) ;
#27 = DIRECTION ( 'NONE',  ( 1.000000000000000000, 1.836970198721029934E-16, 0.000000000000000000 ) ) ;
#28 = APPLICATION_PROTOCOL_DEFINITION ( 'international standard', 'config_control_design', 1994, #146 ) ;
#29 = AXIS2_PLACEMENT_3D ( 'NONE', #128, #256, #213 ) ;
#30 = ORIENTED_EDGE ( 'NONE', *, *, #205, .F. ) ;
#31 = DIRECTION ( 'NONE',  ( 1.000000000000000000, 1.836970198721029934E-16, 0.000000000000000000 ) ) ;
#32 = TOROIDAL_SURFACE ( 'NONE', #190, 53.90000000000000568, 1.100000000000000089 ) ;
#33 = DIRECTION ( 'NONE',  ( 0.000000000000000000, 0.000000000000000000, 1.000000000000000000 ) ) ;
#34 = APPROVAL_ROLE ( '' ) ;
#35 = ORGANIZATION ( 'UNSPECIFIED', 'UNSPECIFIED', '' ) ;
#36 = DATE_AND_TIME ( #153, #250 ) ;
#37 = ORIENTED_EDGE ( 'NONE', *, *, #258, .T. ) ;
#38 = PERSON_AND_ORGANIZATION ( #65, #35 ) ;
#39 = AXIS2_PLACEMENT_3D ( 'NONE', #63, #243, #89 ) ;
#40 = DIRECTION ( 'NONE',  ( -1.000000000000000000, -1.836970198721029934E-16, -0.000000000000000000 ) ) ;
#41 = APPLICATION_CONTEXT ( 'configuration controlled 3d designs of mechanical parts and assemblies' ) ;
#42 = CARTESIAN_POINT ( 'NONE',  ( 21.90000000000000213, -19.99999999999999289, 0.000000000000000000 ) ) ;
#43 = CARTESIAN_POINT ( 'NONE',  ( -23.00000000000000355, 21.10000000000000142, 0.000000000000000000 ) ) ;
#44 = CARTESIAN_POINT ( 'NONE',  ( -23.00000000000001066, 53.90000000000000568, 0.000000000000000000 ) ) ;
#45 = APPROVAL_PERSON_ORGANIZATION ( #202, #50, #174 ) ;
#46 = CARTESIAN_POINT ( 'NONE',  ( -22.99999999999999645, 0.000000000000000000, 0.000000000000000000 ) ) ;
#47 = MECHANICAL_CONTEXT ( 'NONE', #41, 'mechanical' ) ;
#48 = EDGE_LOOP ( 'NONE', ( #98 ) ) ;
#49 = AXIS2_PLACEMENT_3D ( 'NONE', #110, #193, #20 ) ;
#50 = APPROVAL ( #171, 'UNSPECIFIED' ) ;
#51 = EDGE_LOOP ( 'NONE', ( #111 ) ) ;
#52 = EDGE_CURVE ( 'NONE', #25, #25, #184, .T. ) ;
#53 = CARTESIAN_POINT ( 'NONE',  ( 21.89999999999999858, 8.247996192257425481E-15, 0.000000000000000000 ) ) ;
#54 = CIRCLE ( 'NONE', #167, 55.00000000000000000 ) ;
#55 = ADVANCED_FACE ( 'NONE', ( #251, #206 ), #119, .T. ) ;
#56 = CARTESIAN_POINT ( 'NONE',  ( -23.00000000000000355, 20.00000000000000000, 0.000000000000000000 ) ) ;
#57 = PRODUCT_RELATED_PRODUCT_CATEGORY ( 'detail', '', ( #134 ) ) ;
#58 = DIRECTION ( 'NONE',  ( -1.836970198721029934E-16, 1.000000000000000000, 0.000000000000000000 ) ) ;
#59 = COORDINATED_UNIVERSAL_TIME_OFFSET ( 1, 0, .AHEAD. ) ;
#60 = FACE_BOUND ( 'NONE', #183, .T. ) ;
#61 = TOROIDAL_SURFACE ( 'NONE', #29, 21.10000000000000142, 1.100000000000000089 ) ;
#62 = DATE_AND_TIME ( #212, #185 ) ;
#63 = CARTESIAN_POINT ( 'NONE',  ( -23.00000000000000000, -2.020667218593133001E-16, 0.000000000000000000 ) ) ;
#64 = CALENDAR_DATE ( 2021, 23, 8 ) ;
#65 = PERSON ( 'UNSPECIFIED', 'UNSPECIFIED', 'UNSPECIFIED', ('UNSPECIFIED'), ('UNSPECIFIED'), ('UNSPECIFIED') ) ;
#66 = DIRECTION ( 'NONE',  ( -1.000000000000000000, -1.836970198721029934E-16, -0.000000000000000000 ) ) ;
#67 = APPROVAL_DATE_TIME ( #169, #50 ) ;
#68 = AXIS2_PLACEMENT_3D ( 'NONE', #15, #233, #170 ) ;
#69 = CARTESIAN_POINT ( 'NONE',  ( -23.00000000000000355, 0.000000000000000000, 0.000000000000000000 ) ) ;
#70 = EDGE_CURVE ( 'NONE', #132, #132, #162, .T. ) ;
#71 = VERTEX_POINT ( 'NONE', #94 ) ;
#72 = ORIENTED_EDGE ( 'NONE', *, *, #91, .F. ) ;
#73 = AXIS2_PLACEMENT_3D ( 'NONE', #46, #230, #200 ) ;
#74 = ORIENTED_EDGE ( 'NONE', *, *, #141, .F. ) ;
#75 = PERSON_AND_ORGANIZATION_ROLE ( 'design_owner' ) ;
#76 = CARTESIAN_POINT ( 'NONE',  ( 22.99999999999999289, 36.00000000000001421, 0.000000000000000000 ) ) ;
#77 = EDGE_LOOP ( 'NONE', ( #72 ) ) ;
#78 = FACE_OUTER_BOUND ( 'NONE', #182, .T. ) ;
#79 = PRODUCT_DEFINITION_FORMATION_WITH_SPECIFIED_SOURCE ( 'ANY', '', #134, .NOT_KNOWN. ) ;
#80 = DIRECTION ( 'NONE',  ( -1.000000000000000000, -1.836970198721029934E-16, -0.000000000000000000 ) ) ;
#81 = PLANE ( 'NONE',  #136 ) ;
#82 = AXIS2_PLACEMENT_3D ( 'NONE', #76, #139, #163 ) ;
#83 = CARTESIAN_POINT ( 'NONE',  ( -23.00000000000000000, 7.222237291452134449E-31, 0.000000000000000000 ) ) ;
#84 = FACE_OUTER_BOUND ( 'NONE', #223, .T. ) ;
#85 = DIRECTION ( 'NONE',  ( 1.000000000000000000, 1.836970198721029934E-16, 0.000000000000000000 ) ) ;
#86 = MANIFOLD_SOLID_BREP ( 'Fillet1', #180 ) ;
#87 = CC_DESIGN_APPROVAL ( #50, ( #175 ) ) ;
#88 = PERSON_AND_ORGANIZATION_ROLE ( 'creator' ) ;
#89 = DIRECTION ( 'NONE',  ( -1.931046540976037406E-16, 1.000000000000000000, 0.000000000000000000 ) ) ;
#90 = APPROVAL_DATE_TIME ( #2, #22 ) ;
#91 = EDGE_CURVE ( 'NONE', #267, #267, #231, .T. ) ;
#92 = FACE_OUTER_BOUND ( 'NONE', #198, .T. ) ;
#93 = CC_DESIGN_DATE_AND_TIME_ASSIGNMENT ( #62, #242, ( #211 ) ) ;
#94 = CARTESIAN_POINT ( 'NONE',  ( -21.90000000000000924, 55.00000000000000000, 0.000000000000000000 ) ) ;
#95 = EDGE_LOOP ( 'NONE', ( #74 ) ) ;
#96 = PERSON_AND_ORGANIZATION ( #65, #35 ) ;
#97 = EDGE_LOOP ( 'NONE', ( #143 ) ) ;
#98 = ORIENTED_EDGE ( 'NONE', *, *, #168, .F. ) ;
#99 = ORIENTED_EDGE ( 'NONE', *, *, #283, .F. ) ;
#100 = TOROIDAL_SURFACE ( 'NONE', #49, 53.90000000000000568, 1.100000000000000089 ) ;
#101 = DIRECTION ( 'NONE',  ( -1.644287654954319303E-16, 1.000000000000000000, 0.000000000000000000 ) ) ;
#102 = DIRECTION ( 'NONE',  ( 0.000000000000000000, 0.000000000000000000, 1.000000000000000000 ) ) ;
#103 = PERSON_AND_ORGANIZATION_ROLE ( 'design_supplier' ) ;
#104 = DIRECTION ( 'NONE',  ( 1.836970198721029934E-16, -1.000000000000000000, 0.000000000000000000 ) ) ;
#105 = DIRECTION ( 'NONE',  ( 1.000000000000000000, 1.836970198721029934E-16, 0.000000000000000000 ) ) ;
#106 = CALENDAR_DATE ( 2021, 23, 8 ) ;
#107 = AXIS2_PLACEMENT_3D ( 'NONE', #239, #234, #33 ) ;
#108 = CARTESIAN_POINT ( 'NONE',  ( 0.000000000000000000, 0.000000000000000000, 0.000000000000000000 ) ) ;
#109 = PERSON_AND_ORGANIZATION ( #65, #35 ) ;
#110 = CARTESIAN_POINT ( 'NONE',  ( 21.89999999999999858, 0.000000000000000000, 0.000000000000000000 ) ) ;
#111 = ORIENTED_EDGE ( 'NONE', *, *, #52, .T. ) ;
#112 = CARTESIAN_POINT ( 'NONE',  ( -17.85357107135713051, 0.000000000000000000, 55.00000000000000000 ) ) ;
#113 =( GEOMETRIC_REPRESENTATION_CONTEXT ( 3 ) GLOBAL_UNCERTAINTY_ASSIGNED_CONTEXT ( ( #3 ) ) GLOBAL_UNIT_ASSIGNED_CONTEXT ( ( #218, #137, #286 ) ) REPRESENTATION_CONTEXT ( 'NONE', 'WORKASPACE' ) );
#114 = CARTESIAN_POINT ( 'NONE',  ( -17.85357107135713051, 0.000000000000000000, 0.000000000000000000 ) ) ;
#115 = ADVANCED_FACE ( 'NONE', ( #8, #237 ), #17, .F. ) ;
#116 = EDGE_LOOP ( 'NONE', ( #37 ) ) ;
#117 = DIRECTION ( 'NONE',  ( 1.734723475976807094E-16, -1.000000000000000000, 0.000000000000000000 ) ) ;
#118 = DIRECTION ( 'NONE',  ( 1.000000000000000000, 0.000000000000000000, 0.000000000000000000 ) ) ;
#119 = CYLINDRICAL_SURFACE ( 'NONE', #73, 55.00000000000000000 ) ;
#120 = ORIENTED_EDGE ( 'NONE', *, *, #205, .T. ) ;
#121 = ORIENTED_EDGE ( 'NONE', *, *, #271, .T. ) ;
#122 = CIRCLE ( 'NONE', #148, 20.00000000000000000 ) ;
#123 = FACE_OUTER_BOUND ( 'NONE', #276, .T. ) ;
#124 = APPROVAL_STATUS ( 'not_yet_approved' ) ;
#125 = CALENDAR_DATE ( 2021, 23, 8 ) ;
#126 = ADVANCED_FACE ( 'NONE', ( #149, #189 ), #61, .T. ) ;
#127 = PERSON_AND_ORGANIZATION ( #65, #35 ) ;
#128 = CARTESIAN_POINT ( 'NONE',  ( -21.89999999999999858, 2.020667218593140150E-16, 0.000000000000000000 ) ) ;
#129 = ADVANCED_FACE ( 'NONE', ( #254, #123 ), #32, .T. ) ;
#130 = PERSON_AND_ORGANIZATION_ROLE ( 'classification_officer' ) ;
#131 = CC_DESIGN_APPROVAL ( #22, ( #211 ) ) ;
#132 = VERTEX_POINT ( 'NONE', #289 ) ;
#133 = VERTEX_POINT ( 'NONE', #112 ) ;
#134 = PRODUCT ( 'LFR 5306-50KDD', 'LFR 5306-50KDD', '', ( #47 ) ) ;
#135 = ADVANCED_FACE ( 'NONE', ( #13, #12 ), #142, .T. ) ;
#136 = AXIS2_PLACEMENT_3D ( 'NONE', #56, #105, #158 ) ;
#137 =( NAMED_UNIT ( * ) PLANE_ANGLE_UNIT ( ) SI_UNIT ( $, .RADIAN. ) );
#138 = EDGE_LOOP ( 'NONE', ( #166 ) ) ;
#139 = DIRECTION ( 'NONE',  ( -1.000000000000000000, -1.836970198721029934E-16, 0.000000000000000000 ) ) ;
#140 = EDGE_LOOP ( 'NONE', ( #252 ) ) ;
#141 = EDGE_CURVE ( 'NONE', #270, #270, #187, .T. ) ;
#142 = TOROIDAL_SURFACE ( 'NONE', #274, 21.10000000000000142, 1.100000000000000089 ) ;
#143 = ORIENTED_EDGE ( 'NONE', *, *, #219, .T. ) ;
#144 = PLANE ( 'NONE',  #82 ) ;
#145 = DIRECTION ( 'NONE',  ( 0.000000000000000000, 0.000000000000000000, 1.000000000000000000 ) ) ;
#146 = APPLICATION_CONTEXT ( 'configuration controlled 3d designs of mechanical parts and assemblies' ) ;
#147 = DIRECTION ( 'NONE',  ( -1.000000000000000000, -1.836970198721029934E-16, -0.000000000000000000 ) ) ;
#148 = AXIS2_PLACEMENT_3D ( 'NONE', #181, #66, #179 ) ;
#149 = FACE_OUTER_BOUND ( 'NONE', #48, .T. ) ;
#150 = ADVANCED_FACE ( 'NONE', ( #16, #84 ), #282, .T. ) ;
#151 = DATE_TIME_ROLE ( 'creation_date' ) ;
#152 = FACE_OUTER_BOUND ( 'NONE', #273, .T. ) ;
#153 = CALENDAR_DATE ( 2021, 23, 8 ) ;
#154 = COORDINATED_UNIVERSAL_TIME_OFFSET ( 1, 0, .AHEAD. ) ;
#155 = DESIGN_CONTEXT ( 'detailed design', #146, 'design' ) ;
#156 = FACE_OUTER_BOUND ( 'NONE', #97, .T. ) ;
#157 = EDGE_LOOP ( 'NONE', ( #99 ) ) ;
#158 = DIRECTION ( 'NONE',  ( -1.836970198721029934E-16, 1.000000000000000000, 0.000000000000000000 ) ) ;
#159 = CC_DESIGN_DATE_AND_TIME_ASSIGNMENT ( #36, #151, ( #175 ) ) ;
#160 = VERTEX_POINT ( 'NONE', #4 ) ;
#161 = CARTESIAN_POINT ( 'NONE',  ( -21.89999999999999858, 0.000000000000000000, 0.000000000000000000 ) ) ;
#162 = CIRCLE ( 'NONE', #287, 53.90000000000000568 ) ;
#163 = DIRECTION ( 'NONE',  ( 1.836970198721029934E-16, -1.000000000000000000, 0.000000000000000000 ) ) ;
#164 = ORIENTED_EDGE ( 'NONE', *, *, #91, .T. ) ;
#165 = CARTESIAN_POINT ( 'NONE',  ( 17.85357107135713051, 0.000000000000000000, 0.000000000000000000 ) ) ;
#166 = ORIENTED_EDGE ( 'NONE', *, *, #70, .F. ) ;
#167 = AXIS2_PLACEMENT_3D ( 'NONE', #161, #246, #241 ) ;
#168 = EDGE_CURVE ( 'NONE', #247, #247, #24, .T. ) ;
#169 = DATE_AND_TIME ( #64, #209 ) ;
#170 = DIRECTION ( 'NONE',  ( 0.000000000000000000, 0.000000000000000000, 1.000000000000000000 ) ) ;
#171 = APPROVAL_STATUS ( 'not_yet_approved' ) ;
#172 = DIRECTION ( 'NONE',  ( 1.892425610156516875E-16, -1.000000000000000000, 0.000000000000000000 ) ) ;
#173 = AXIS2_PLACEMENT_3D ( 'NONE', #165, #229, #145 ) ;
#174 = APPROVAL_ROLE ( '' ) ;
#175 = PRODUCT_DEFINITION ( 'UNKNOWN', '', #79, #155 ) ;
#176 = PERSON_AND_ORGANIZATION ( #65, #35 ) ;
#177 = CYLINDRICAL_SURFACE ( 'NONE', #217, 20.00000000000000000 ) ;
#178 = SHAPE_DEFINITION_REPRESENTATION ( #222, #272 ) ;
#179 = DIRECTION ( 'NONE',  ( -1.734723475976807094E-16, 1.000000000000000000, 0.000000000000000000 ) ) ;
#180 = CLOSED_SHELL ( 'NONE', ( #214, #11, #238, #115, #150, #55, #277, #135, #129, #126 ) ) ;
#181 = CARTESIAN_POINT ( 'NONE',  ( -21.89999999999999858, 2.020667218593139657E-16, 0.000000000000000000 ) ) ;
#182 = EDGE_LOOP ( 'NONE', ( #203 ) ) ;
#183 = EDGE_LOOP ( 'NONE', ( #248 ) ) ;
#184 = CIRCLE ( 'NONE', #173, 55.00000000000000000 ) ;
#185 = LOCAL_TIME ( 16, 51, 14.00000000000000000, #154 ) ;
#186 = DIRECTION ( 'NONE',  ( -1.000000000000000000, -1.836970198721029934E-16, -0.000000000000000000 ) ) ;
#187 = CIRCLE ( 'NONE', #255, 21.10000000000000142 ) ;
#188 = PERSON_AND_ORGANIZATION ( #65, #35 ) ;
#189 = FACE_OUTER_BOUND ( 'NONE', #1, .T. ) ;
#190 = AXIS2_PLACEMENT_3D ( 'NONE', #261, #85, #58 ) ;
#191 = CARTESIAN_POINT ( 'NONE',  ( -21.90000000000000213, 20.00000000000000000, 0.000000000000000000 ) ) ;
#192 = APPROVAL_STATUS ( 'not_yet_approved' ) ;
#193 = DIRECTION ( 'NONE',  ( -1.000000000000000000, -1.836970198721029934E-16, -0.000000000000000000 ) ) ;
#194 = ORIENTED_EDGE ( 'NONE', *, *, #258, .F. ) ;
#195 = FACE_OUTER_BOUND ( 'NONE', #138, .T. ) ;
#196 = CIRCLE ( 'NONE', #39, 53.90000000000000568 ) ;
#197 = DIRECTION ( 'NONE',  ( 1.734723475976807094E-16, -1.000000000000000000, 0.000000000000000000 ) ) ;
#198 = EDGE_LOOP ( 'NONE', ( #164 ) ) ;
#199 = CC_DESIGN_PERSON_AND_ORGANIZATION_ASSIGNMENT ( #19, #88, ( #79 ) ) ;
#200 = DIRECTION ( 'NONE',  ( 0.000000000000000000, 0.000000000000000000, 1.000000000000000000 ) ) ;
#201 = AXIS2_PLACEMENT_3D ( 'NONE', #114, #18, #220 ) ;
#202 = PERSON_AND_ORGANIZATION ( #65, #35 ) ;
#203 = ORIENTED_EDGE ( 'NONE', *, *, #70, .T. ) ;
#204 = EDGE_LOOP ( 'NONE', ( #194 ) ) ;
#205 = EDGE_CURVE ( 'NONE', #160, #160, #244, .T. ) ;
#206 = FACE_OUTER_BOUND ( 'NONE', #140, .T. ) ;
#207 = CC_DESIGN_SECURITY_CLASSIFICATION ( #211, ( #79 ) ) ;
#208 = DIRECTION ( 'NONE',  ( 1.931046540976037406E-16, -1.000000000000000000, 0.000000000000000000 ) ) ;
#209 = LOCAL_TIME ( 16, 51, 14.00000000000000000, #259 ) ;
#210 = DIRECTION ( 'NONE',  ( 1.000000000000000000, 1.836970198721029934E-16, 0.000000000000000000 ) ) ;
#211 = SECURITY_CLASSIFICATION ( '', '', #264 ) ;
#212 = CALENDAR_DATE ( 2021, 23, 8 ) ;
#213 = DIRECTION ( 'NONE',  ( -1.836970198721029934E-16, 1.000000000000000000, 0.000000000000000000 ) ) ;
#214 = ADVANCED_FACE ( 'NONE', ( #152, #60 ), #81, .F. ) ;
#215 = DIRECTION ( 'NONE',  ( 1.644287654954319303E-16, -1.000000000000000000, 0.000000000000000000 ) ) ;
#216 = COORDINATED_UNIVERSAL_TIME_OFFSET ( 1, 0, .AHEAD. ) ;
#217 = AXIS2_PLACEMENT_3D ( 'NONE', #69, #40, #197 ) ;
#218 =( LENGTH_UNIT ( ) NAMED_UNIT ( * ) SI_UNIT ( .MILLI., .METRE. ) );
#219 = EDGE_CURVE ( 'NONE', #221, #221, #122, .T. ) ;
#220 = DIRECTION ( 'NONE',  ( 0.000000000000000000, 0.000000000000000000, 1.000000000000000000 ) ) ;
#221 = VERTEX_POINT ( 'NONE', #191 ) ;
#222 = PRODUCT_DEFINITION_SHAPE ( 'NONE', 'NONE',  #175 ) ;
#223 = EDGE_LOOP ( 'NONE', ( #7 ) ) ;
#224 = APPROVAL ( #124, 'UNSPECIFIED' ) ;
#225 = CARTESIAN_POINT ( 'NONE',  ( 21.89999999999999858, 8.247996192257425481E-15, 0.000000000000000000 ) ) ;
#226 = EDGE_LOOP ( 'NONE', ( #120 ) ) ;
#227 = AXIS2_PLACEMENT_3D ( 'NONE', #257, #186, #172 ) ;
#228 = EDGE_LOOP ( 'NONE', ( #30 ) ) ;
#229 = DIRECTION ( 'NONE',  ( -1.000000000000000000, -0.000000000000000000, -0.000000000000000000 ) ) ;
#230 = DIRECTION ( 'NONE',  ( -1.000000000000000000, -0.000000000000000000, -0.000000000000000000 ) ) ;
#231 = CIRCLE ( 'NONE', #268, 20.00000000000000000 ) ;
#232 = CC_DESIGN_APPROVAL ( #224, ( #79 ) ) ;
#233 = DIRECTION ( 'NONE',  ( -1.000000000000000000, -0.000000000000000000, -0.000000000000000000 ) ) ;
#234 = DIRECTION ( 'NONE',  ( -1.000000000000000000, -0.000000000000000000, -0.000000000000000000 ) ) ;
#235 = CC_DESIGN_PERSON_AND_ORGANIZATION_ASSIGNMENT ( #109, #130, ( #211 ) ) ;
#236 = APPROVAL_PERSON_ORGANIZATION ( #127, #224, #34 ) ;
#237 = FACE_OUTER_BOUND ( 'NONE', #51, .T. ) ;
#238 = ADVANCED_FACE ( 'NONE', ( #92, #156 ), #177, .F. ) ;
#239 = CARTESIAN_POINT ( 'NONE',  ( 0.000000000000000000, 0.000000000000000000, 0.000000000000000000 ) ) ;
#240 = APPROVAL_ROLE ( '' ) ;
#241 = DIRECTION ( 'NONE',  ( -1.892425610156516875E-16, 1.000000000000000000, 0.000000000000000000 ) ) ;
#242 = DATE_TIME_ROLE ( 'classification_date' ) ;
#243 = DIRECTION ( 'NONE',  ( -1.000000000000000000, -1.836970198721029934E-16, -0.000000000000000000 ) ) ;
#244 = CIRCLE ( 'NONE', #227, 55.00000000000000000 ) ;
#245 = PERSON_AND_ORGANIZATION_ROLE ( 'creator' ) ;
#246 = DIRECTION ( 'NONE',  ( 1.000000000000000000, 1.836970198721029934E-16, 0.000000000000000000 ) ) ;
#247 = VERTEX_POINT ( 'NONE', #43 ) ;
#248 = ORIENTED_EDGE ( 'NONE', *, *, #168, .T. ) ;
#249 = CC_DESIGN_PERSON_AND_ORGANIZATION_ASSIGNMENT ( #96, #75, ( #134 ) ) ;
#250 = LOCAL_TIME ( 16, 51, 14.00000000000000000, #59 ) ;
#251 = FACE_OUTER_BOUND ( 'NONE', #226, .T. ) ;
#252 = ORIENTED_EDGE ( 'NONE', *, *, #52, .F. ) ;
#253 = EDGE_LOOP ( 'NONE', ( #26 ) ) ;
#254 = FACE_OUTER_BOUND ( 'NONE', #204, .T. ) ;
#255 = AXIS2_PLACEMENT_3D ( 'NONE', #284, #147, #215 ) ;
#256 = DIRECTION ( 'NONE',  ( 1.000000000000000000, 1.836970198721029934E-16, 0.000000000000000000 ) ) ;
#257 = CARTESIAN_POINT ( 'NONE',  ( 21.89999999999999858, 0.000000000000000000, 0.000000000000000000 ) ) ;
#258 = EDGE_CURVE ( 'NONE', #71, #71, #54, .T. ) ;
#259 = COORDINATED_UNIVERSAL_TIME_OFFSET ( 1, 0, .AHEAD. ) ;
#260 = CIRCLE ( 'NONE', #201, 55.00000000000000000 ) ;
#261 = CARTESIAN_POINT ( 'NONE',  ( -21.89999999999999858, 0.000000000000000000, 0.000000000000000000 ) ) ;
#262 = APPROVAL_DATE_TIME ( #288, #224 ) ;
#263 = APPLICATION_PROTOCOL_DEFINITION ( 'international standard', 'config_control_design', 1994, #41 ) ;
#264 = SECURITY_CLASSIFICATION_LEVEL ( 'unclassified' ) ;
#265 = ORIENTED_EDGE ( 'NONE', *, *, #219, .F. ) ;
#266 = CC_DESIGN_PERSON_AND_ORGANIZATION_ASSIGNMENT ( #176, #103, ( #79 ) ) ;
#267 = VERTEX_POINT ( 'NONE', #42 ) ;
#268 = AXIS2_PLACEMENT_3D ( 'NONE', #225, #27, #117 ) ;
#269 = CC_DESIGN_PERSON_AND_ORGANIZATION_ASSIGNMENT ( #188, #245, ( #175 ) ) ;
#270 = VERTEX_POINT ( 'NONE', #21 ) ;
#271 = EDGE_CURVE ( 'NONE', #23, #23, #196, .T. ) ;
#272 = ADVANCED_BREP_SHAPE_REPRESENTATION ( 'LFR 5306-50KDD', ( #86, #281 ), #113 ) ;
#273 = EDGE_LOOP ( 'NONE', ( #121 ) ) ;
#274 = AXIS2_PLACEMENT_3D ( 'NONE', #53, #80, #104 ) ;
#275 = LOCAL_TIME ( 16, 51, 14.00000000000000000, #216 ) ;
#276 = EDGE_LOOP ( 'NONE', ( #278 ) ) ;
#277 = ADVANCED_FACE ( 'NONE', ( #195, #6 ), #100, .T. ) ;
#278 = ORIENTED_EDGE ( 'NONE', *, *, #271, .F. ) ;
#279 = FACE_BOUND ( 'NONE', #253, .T. ) ;
#280 = LOCAL_TIME ( 16, 51, 14.00000000000000000, #285 ) ;
#281 = AXIS2_PLACEMENT_3D ( 'NONE', #108, #102, #118 ) ;
#282 = CYLINDRICAL_SURFACE ( 'NONE', #68, 55.00000000000000000 ) ;
#283 = EDGE_CURVE ( 'NONE', #133, #133, #260, .T. ) ;
#284 = CARTESIAN_POINT ( 'NONE',  ( 23.00000000000000000, 8.450062914116737844E-15, 0.000000000000000000 ) ) ;
#285 = COORDINATED_UNIVERSAL_TIME_OFFSET ( 1, 0, .AHEAD. ) ;
#286 =( NAMED_UNIT ( * ) SI_UNIT ( $, .STERADIAN. ) SOLID_ANGLE_UNIT ( ) );
#287 = AXIS2_PLACEMENT_3D ( 'NONE', #10, #31, #208 ) ;
#288 = DATE_AND_TIME ( #125, #280 ) ;
#289 = CARTESIAN_POINT ( 'NONE',  ( 23.00000000000001066, -53.90000000000000568, 0.000000000000000000 ) ) ;
ENDSEC;
END-ISO-10303-21;
