ISO-10303-21;
HEADER;
FILE_DESCRIPTION(('STEP AP214'),'1');
FILE_NAME('standard_8_nbv_1000.stp','2021-08-24T13:52:20',('TraceParts'),('TraceParts S.A.'),'Spatial InterOp 3D',' ',' ');
FILE_SCHEMA(('AUTOMOTIVE_DESIGN { 1 0 10303 214 1 1 1 1 }'));
ENDSEC;
DATA;
#1=PRODUCT_DEFINITION_CONTEXT('',#9,'design');
#2=APPLICATION_PROTOCOL_DEFINITION('INTERNATIONAL STANDARD','automotive_design',1994,#9);
#3=PRODUCT_CATEGORY_RELATIONSHIP('NONE','NONE',#10,#11);
#4=SHAPE_DEFINITION_REPRESENTATION(#12,#13);
#5= (GEOMETRIC_REPRESENTATION_CONTEXT(3)GLOBAL_UNCERTAINTY_ASSIGNED_CONTEXT((#16))GLOBAL_UNIT_ASSIGNED_CONTEXT((#18,#19,#20))REPRESENTATION_CONTEXT('NONE','WORKSPACE'));
#9=APPLICATION_CONTEXT(' ');
#10=PRODUCT_CATEGORY('part','NONE');
#11=PRODUCT_RELATED_PRODUCT_CATEGORY('detail',' ',(#22));
#12=PRODUCT_DEFINITION_SHAPE('NONE','NONE',#23);
#13=ADVANCED_BREP_SHAPE_REPRESENTATION('standard_8_nbv_1000',(#24,#25),#5);
#16=UNCERTAINTY_MEASURE_WITH_UNIT(LENGTH_MEASURE(1.0E-06),#18,'','');
#18= (CONVERSION_BASED_UNIT('MILLIMETRE',#28)LENGTH_UNIT()NAMED_UNIT(#31));
#19= (NAMED_UNIT(#33)PLANE_ANGLE_UNIT()SI_UNIT($,.RADIAN.));
#20= (NAMED_UNIT(#33)SOLID_ANGLE_UNIT()SI_UNIT($,.STERADIAN.));
#22=PRODUCT('standard_8_nbv_1000','standard_8_nbv_1000','PART-standard_8_nbv_1000-DESC',(#39));
#23=PRODUCT_DEFINITION('','NONE',#40,#1);
#24=MANIFOLD_SOLID_BREP('standard_8_nbv_1000',#41);
#25=AXIS2_PLACEMENT_3D('',#42,#43,#44);
#28=LENGTH_MEASURE_WITH_UNIT(LENGTH_MEASURE(1.0),#45);
#31=DIMENSIONAL_EXPONENTS(1.0,0.0,0.0,0.0,0.0,0.0,0.0);
#33=DIMENSIONAL_EXPONENTS(0.0,0.0,0.0,0.0,0.0,0.0,0.0);
#39=PRODUCT_CONTEXT('',#9,'mechanical');
#40=PRODUCT_DEFINITION_FORMATION_WITH_SPECIFIED_SOURCE(' ','NONE',#22,.NOT_KNOWN.);
#41=CLOSED_SHELL('',(#46,#47,#48,#49,#50,#51,#52,#53,#54,#55,#56,#57,#58,#59,#60,#61,#62,#63,#64,#65,#66,#67));
#42=CARTESIAN_POINT('',(0.0,0.0,0.0));
#43=DIRECTION('',(0.0,0.0,1.0));
#44=DIRECTION('',(1.0,0.0,0.0));
#45= (NAMED_UNIT(#31)LENGTH_UNIT()SI_UNIT(.MILLI.,.METRE.));
#46=ADVANCED_FACE('',(#69),#70,.T.);
#47=ADVANCED_FACE('',(#71),#72,.T.);
#48=ADVANCED_FACE('',(#73),#74,.F.);
#49=ADVANCED_FACE('',(#75),#76,.T.);
#50=ADVANCED_FACE('',(#77),#78,.F.);
#51=ADVANCED_FACE('',(#79),#80,.T.);
#52=ADVANCED_FACE('',(#81),#82,.F.);
#53=ADVANCED_FACE('',(#83),#84,.T.);
#54=ADVANCED_FACE('',(#85),#86,.F.);
#55=ADVANCED_FACE('',(#87),#88,.T.);
#56=ADVANCED_FACE('',(#89),#90,.T.);
#57=ADVANCED_FACE('',(#91),#92,.T.);
#58=ADVANCED_FACE('',(#93),#94,.T.);
#59=ADVANCED_FACE('',(#95),#96,.T.);
#60=ADVANCED_FACE('',(#97),#98,.T.);
#61=ADVANCED_FACE('',(#99),#100,.T.);
#62=ADVANCED_FACE('',(#101),#102,.T.);
#63=ADVANCED_FACE('',(#103),#104,.T.);
#64=ADVANCED_FACE('',(#105),#106,.T.);
#65=ADVANCED_FACE('',(#107),#108,.T.);
#66=ADVANCED_FACE('',(#109),#110,.T.);
#67=ADVANCED_FACE('',(#111),#112,.F.);
#69=FACE_OUTER_BOUND('',#113,.T.);
#70=CYLINDRICAL_SURFACE('',#114,3.0);
#71=FACE_OUTER_BOUND('',#115,.T.);
#72=PLANE('',#116);
#73=FACE_OUTER_BOUND('',#117,.T.);
#74=CYLINDRICAL_SURFACE('',#118,6.0);
#75=FACE_OUTER_BOUND('',#119,.T.);
#76=PLANE('',#120);
#77=FACE_OUTER_BOUND('',#121,.T.);
#78=CYLINDRICAL_SURFACE('',#122,6.0);
#79=FACE_OUTER_BOUND('',#123,.T.);
#80=PLANE('',#124);
#81=FACE_OUTER_BOUND('',#125,.T.);
#82=CYLINDRICAL_SURFACE('',#126,6.0);
#83=FACE_OUTER_BOUND('',#127,.T.);
#84=PLANE('',#128);
#85=FACE_OUTER_BOUND('',#129,.T.);
#86=CYLINDRICAL_SURFACE('',#130,6.0);
#87=FACE_OUTER_BOUND('',#131,.T.);
#88=PLANE('',#132);
#89=FACE_OUTER_BOUND('',#133,.T.);
#90=CYLINDRICAL_SURFACE('',#134,3.0);
#91=FACE_OUTER_BOUND('',#135,.T.);
#92=PLANE('',#136);
#93=FACE_OUTER_BOUND('',#137,.T.);
#94=CYLINDRICAL_SURFACE('',#138,6.0);
#95=FACE_OUTER_BOUND('',#139,.T.);
#96=PLANE('',#140);
#97=FACE_OUTER_BOUND('',#141,.T.);
#98=CYLINDRICAL_SURFACE('',#142,6.0);
#99=FACE_OUTER_BOUND('',#143,.T.);
#100=PLANE('',#144);
#101=FACE_OUTER_BOUND('',#145,.T.);
#102=CYLINDRICAL_SURFACE('',#146,6.0);
#103=FACE_OUTER_BOUND('',#147,.T.);
#104=PLANE('',#148);
#105=FACE_OUTER_BOUND('',#149,.T.);
#106=CYLINDRICAL_SURFACE('',#150,6.0);
#107=FACE_OUTER_BOUND('',#151,.T.);
#108=PLANE('',#152);
#109=FACE_OUTER_BOUND('',#153,.T.);
#110=PLANE('',#154);
#111=FACE_OUTER_BOUND('',#155,.T.);
#112=PLANE('',#156);
#113=EDGE_LOOP('',(#157,#158,#159,#160));
#114=AXIS2_PLACEMENT_3D('',#161,#162,#163);
#115=EDGE_LOOP('',(#164,#165,#166,#167));
#116=AXIS2_PLACEMENT_3D('',#168,#169,#170);
#117=EDGE_LOOP('',(#171,#172,#173,#174));
#118=AXIS2_PLACEMENT_3D('',#175,#176,#177);
#119=EDGE_LOOP('',(#178,#179,#180,#181));
#120=AXIS2_PLACEMENT_3D('',#182,#183,#184);
#121=EDGE_LOOP('',(#185,#186,#187,#188));
#122=AXIS2_PLACEMENT_3D('',#189,#190,#191);
#123=EDGE_LOOP('',(#192,#193,#194,#195));
#124=AXIS2_PLACEMENT_3D('',#196,#197,#198);
#125=EDGE_LOOP('',(#199,#200,#201,#202));
#126=AXIS2_PLACEMENT_3D('',#203,#204,#205);
#127=EDGE_LOOP('',(#206,#207,#208,#209));
#128=AXIS2_PLACEMENT_3D('',#210,#211,#212);
#129=EDGE_LOOP('',(#213,#214,#215,#216));
#130=AXIS2_PLACEMENT_3D('',#217,#218,#219);
#131=EDGE_LOOP('',(#220,#221,#222,#223));
#132=AXIS2_PLACEMENT_3D('',#224,#225,#226);
#133=EDGE_LOOP('',(#227,#228,#229,#230));
#134=AXIS2_PLACEMENT_3D('',#231,#232,#233);
#135=EDGE_LOOP('',(#234,#235,#236,#237));
#136=AXIS2_PLACEMENT_3D('',#238,#239,#240);
#137=EDGE_LOOP('',(#241,#242,#243,#244));
#138=AXIS2_PLACEMENT_3D('',#245,#246,#247);
#139=EDGE_LOOP('',(#248,#249,#250,#251));
#140=AXIS2_PLACEMENT_3D('',#252,#253,#254);
#141=EDGE_LOOP('',(#255,#256,#257,#258));
#142=AXIS2_PLACEMENT_3D('',#259,#260,#261);
#143=EDGE_LOOP('',(#262,#263,#264,#265));
#144=AXIS2_PLACEMENT_3D('',#266,#267,#268);
#145=EDGE_LOOP('',(#269,#270,#271,#272));
#146=AXIS2_PLACEMENT_3D('',#273,#274,#275);
#147=EDGE_LOOP('',(#276,#277,#278,#279));
#148=AXIS2_PLACEMENT_3D('',#280,#281,#282);
#149=EDGE_LOOP('',(#283,#284,#285,#286));
#150=AXIS2_PLACEMENT_3D('',#287,#288,#289);
#151=EDGE_LOOP('',(#290,#291,#292,#293));
#152=AXIS2_PLACEMENT_3D('',#294,#295,#296);
#153=EDGE_LOOP('',(#297,#298,#299,#300,#301,#302,#303,#304,#305,#306,#307,#308,#309,#310,#311,#312,#313,#314,#315,#316));
#154=AXIS2_PLACEMENT_3D('',#317,#318,#319);
#155=EDGE_LOOP('',(#320,#321,#322,#323,#324,#325,#326,#327,#328,#329,#330,#331,#332,#333,#334,#335,#336,#337,#338,#339));
#156=AXIS2_PLACEMENT_3D('',#340,#341,#342);
#157=ORIENTED_EDGE('',*,*,#343,.T.);
#158=ORIENTED_EDGE('',*,*,#344,.F.);
#159=ORIENTED_EDGE('',*,*,#345,.T.);
#160=ORIENTED_EDGE('',*,*,#346,.T.);
#161=CARTESIAN_POINT('',(-93.55,87.0,0.0));
#162=DIRECTION('',(0.0,0.0,1.0));
#163=DIRECTION('',(1.0,0.0,0.0));
#164=ORIENTED_EDGE('',*,*,#347,.T.);
#165=ORIENTED_EDGE('',*,*,#348,.F.);
#166=ORIENTED_EDGE('',*,*,#349,.F.);
#167=ORIENTED_EDGE('',*,*,#344,.T.);
#168=CARTESIAN_POINT('',(-90.55,58.0423292192,0.0));
#169=DIRECTION('',(1.0,0.0,-0.0));
#170=DIRECTION('',(-0.0,1.0,0.0));
#171=ORIENTED_EDGE('',*,*,#350,.T.);
#172=ORIENTED_EDGE('',*,*,#351,.F.);
#173=ORIENTED_EDGE('',*,*,#352,.F.);
#174=ORIENTED_EDGE('',*,*,#348,.T.);
#175=CARTESIAN_POINT('',(-84.55,29.0846584384,0.0));
#176=DIRECTION('',(0.0,0.0,1.0));
#177=DIRECTION('',(1.0,0.0,0.0));
#178=ORIENTED_EDGE('',*,*,#353,.T.);
#179=ORIENTED_EDGE('',*,*,#354,.F.);
#180=ORIENTED_EDGE('',*,*,#355,.F.);
#181=ORIENTED_EDGE('',*,*,#351,.T.);
#182=CARTESIAN_POINT('',(-78.6358968733653,21.4214742183273,0.0));
#183=DIRECTION('',(0.242535625034784,0.970142500145719,-0.0));
#184=DIRECTION('',(-0.970142500145719,0.242535625034784,0.0));
#185=ORIENTED_EDGE('',*,*,#356,.T.);
#186=ORIENTED_EDGE('',*,*,#357,.F.);
#187=ORIENTED_EDGE('',*,*,#358,.F.);
#188=ORIENTED_EDGE('',*,*,#354,.T.);
#189=CARTESIAN_POINT('',(-69.8113662463,25.4,0.0));
#190=DIRECTION('',(0.0,0.0,1.0));
#191=DIRECTION('',(1.0,0.0,0.0));
#192=ORIENTED_EDGE('',*,*,#359,.T.);
#193=ORIENTED_EDGE('',*,*,#360,.F.);
#194=ORIENTED_EDGE('',*,*,#361,.T.);
#195=ORIENTED_EDGE('',*,*,#357,.T.);
#196=CARTESIAN_POINT('',(-5.00222085975111E-11,19.4,0.0));
#197=DIRECTION('',(0.0,1.0,-0.0));
#198=DIRECTION('',(-1.0,0.0,0.0));
#199=ORIENTED_EDGE('',*,*,#362,.T.);
#200=ORIENTED_EDGE('',*,*,#363,.F.);
#201=ORIENTED_EDGE('',*,*,#364,.F.);
#202=ORIENTED_EDGE('',*,*,#360,.T.);
#203=CARTESIAN_POINT('',(69.8113662462,25.4,0.0));
#204=DIRECTION('',(0.0,0.0,1.0));
#205=DIRECTION('',(1.0,0.0,0.0));
#206=ORIENTED_EDGE('',*,*,#365,.T.);
#207=ORIENTED_EDGE('',*,*,#366,.F.);
#208=ORIENTED_EDGE('',*,*,#367,.T.);
#209=ORIENTED_EDGE('',*,*,#363,.T.);
#210=CARTESIAN_POINT('',(78.6358968733133,21.4214742183408,0.0));
#211=DIRECTION('',(-0.242535625040981,0.97014250014417,0.0));
#212=DIRECTION('',(-0.97014250014417,-0.242535625040981,0.0));
#213=ORIENTED_EDGE('',*,*,#368,.T.);
#214=ORIENTED_EDGE('',*,*,#369,.F.);
#215=ORIENTED_EDGE('',*,*,#370,.F.);
#216=ORIENTED_EDGE('',*,*,#366,.T.);
#217=CARTESIAN_POINT('',(84.55,29.0846584384,0.0));
#218=DIRECTION('',(0.0,0.0,1.0));
#219=DIRECTION('',(1.0,0.0,0.0));
#220=ORIENTED_EDGE('',*,*,#371,.T.);
#221=ORIENTED_EDGE('',*,*,#372,.F.);
#222=ORIENTED_EDGE('',*,*,#373,.T.);
#223=ORIENTED_EDGE('',*,*,#369,.T.);
#224=CARTESIAN_POINT('',(90.55,58.0423292192,0.0));
#225=DIRECTION('',(-1.0,0.0,0.0));
#226=DIRECTION('',(0.0,-1.0,0.0));
#227=ORIENTED_EDGE('',*,*,#374,.T.);
#228=ORIENTED_EDGE('',*,*,#375,.F.);
#229=ORIENTED_EDGE('',*,*,#376,.T.);
#230=ORIENTED_EDGE('',*,*,#372,.T.);
#231=CARTESIAN_POINT('',(93.55,87.0,0.0));
#232=DIRECTION('',(0.0,0.0,1.0));
#233=DIRECTION('',(1.0,0.0,0.0));
#234=ORIENTED_EDGE('',*,*,#377,.T.);
#235=ORIENTED_EDGE('',*,*,#378,.F.);
#236=ORIENTED_EDGE('',*,*,#379,.T.);
#237=ORIENTED_EDGE('',*,*,#375,.T.);
#238=CARTESIAN_POINT('',(106.9,90.0,0.0));
#239=DIRECTION('',(0.0,1.0,-0.0));
#240=DIRECTION('',(-1.0,0.0,0.0));
#241=ORIENTED_EDGE('',*,*,#380,.T.);
#242=ORIENTED_EDGE('',*,*,#381,.F.);
#243=ORIENTED_EDGE('',*,*,#382,.T.);
#244=ORIENTED_EDGE('',*,*,#378,.T.);
#245=CARTESIAN_POINT('',(120.25,84.0,0.0));
#246=DIRECTION('',(0.0,0.0,1.0));
#247=DIRECTION('',(1.0,0.0,0.0));
#248=ORIENTED_EDGE('',*,*,#383,.T.);
#249=ORIENTED_EDGE('',*,*,#384,.F.);
#250=ORIENTED_EDGE('',*,*,#385,.T.);
#251=ORIENTED_EDGE('',*,*,#381,.T.);
#252=CARTESIAN_POINT('',(126.25,45.0,0.0));
#253=DIRECTION('',(1.0,0.0,0.0));
#254=DIRECTION('',(0.0,1.0,0.0));
#255=ORIENTED_EDGE('',*,*,#386,.T.);
#256=ORIENTED_EDGE('',*,*,#387,.F.);
#257=ORIENTED_EDGE('',*,*,#388,.T.);
#258=ORIENTED_EDGE('',*,*,#384,.T.);
#259=CARTESIAN_POINT('',(120.25,6.0,0.0));
#260=DIRECTION('',(0.0,0.0,1.0));
#261=DIRECTION('',(1.0,0.0,0.0));
#262=ORIENTED_EDGE('',*,*,#389,.T.);
#263=ORIENTED_EDGE('',*,*,#390,.F.);
#264=ORIENTED_EDGE('',*,*,#391,.T.);
#265=ORIENTED_EDGE('',*,*,#387,.T.);
#266=CARTESIAN_POINT('',(0.0,0.0,0.0));
#267=DIRECTION('',(0.0,-1.0,0.0));
#268=DIRECTION('',(1.0,0.0,0.0));
#269=ORIENTED_EDGE('',*,*,#392,.T.);
#270=ORIENTED_EDGE('',*,*,#393,.F.);
#271=ORIENTED_EDGE('',*,*,#394,.T.);
#272=ORIENTED_EDGE('',*,*,#390,.T.);
#273=CARTESIAN_POINT('',(-120.25,6.0,0.0));
#274=DIRECTION('',(0.0,0.0,1.0));
#275=DIRECTION('',(1.0,0.0,0.0));
#276=ORIENTED_EDGE('',*,*,#395,.T.);
#277=ORIENTED_EDGE('',*,*,#396,.F.);
#278=ORIENTED_EDGE('',*,*,#397,.T.);
#279=ORIENTED_EDGE('',*,*,#393,.T.);
#280=CARTESIAN_POINT('',(-126.25,45.0,0.0));
#281=DIRECTION('',(-1.0,0.0,0.0));
#282=DIRECTION('',(0.0,-1.0,0.0));
#283=ORIENTED_EDGE('',*,*,#398,.T.);
#284=ORIENTED_EDGE('',*,*,#399,.F.);
#285=ORIENTED_EDGE('',*,*,#400,.T.);
#286=ORIENTED_EDGE('',*,*,#396,.T.);
#287=CARTESIAN_POINT('',(-120.25,84.0,0.0));
#288=DIRECTION('',(0.0,0.0,1.0));
#289=DIRECTION('',(1.0,0.0,0.0));
#290=ORIENTED_EDGE('',*,*,#401,.T.);
#291=ORIENTED_EDGE('',*,*,#346,.F.);
#292=ORIENTED_EDGE('',*,*,#402,.T.);
#293=ORIENTED_EDGE('',*,*,#399,.T.);
#294=CARTESIAN_POINT('',(-106.9,90.0,0.0));
#295=DIRECTION('',(0.0,1.0,-0.0));
#296=DIRECTION('',(-1.0,0.0,0.0));
#297=ORIENTED_EDGE('',*,*,#343,.F.);
#298=ORIENTED_EDGE('',*,*,#401,.F.);
#299=ORIENTED_EDGE('',*,*,#398,.F.);
#300=ORIENTED_EDGE('',*,*,#395,.F.);
#301=ORIENTED_EDGE('',*,*,#392,.F.);
#302=ORIENTED_EDGE('',*,*,#389,.F.);
#303=ORIENTED_EDGE('',*,*,#386,.F.);
#304=ORIENTED_EDGE('',*,*,#383,.F.);
#305=ORIENTED_EDGE('',*,*,#380,.F.);
#306=ORIENTED_EDGE('',*,*,#377,.F.);
#307=ORIENTED_EDGE('',*,*,#374,.F.);
#308=ORIENTED_EDGE('',*,*,#371,.F.);
#309=ORIENTED_EDGE('',*,*,#368,.F.);
#310=ORIENTED_EDGE('',*,*,#365,.F.);
#311=ORIENTED_EDGE('',*,*,#362,.F.);
#312=ORIENTED_EDGE('',*,*,#359,.F.);
#313=ORIENTED_EDGE('',*,*,#356,.F.);
#314=ORIENTED_EDGE('',*,*,#353,.F.);
#315=ORIENTED_EDGE('',*,*,#350,.F.);
#316=ORIENTED_EDGE('',*,*,#347,.F.);
#317=CARTESIAN_POINT('',(-3.8702374638433E-13,31.069668700788,1000.0));
#318=DIRECTION('',(0.0,0.0,1.0));
#319=DIRECTION('',(1.0,0.0,0.0));
#320=ORIENTED_EDGE('',*,*,#402,.F.);
#321=ORIENTED_EDGE('',*,*,#345,.F.);
#322=ORIENTED_EDGE('',*,*,#349,.T.);
#323=ORIENTED_EDGE('',*,*,#352,.T.);
#324=ORIENTED_EDGE('',*,*,#355,.T.);
#325=ORIENTED_EDGE('',*,*,#358,.T.);
#326=ORIENTED_EDGE('',*,*,#361,.F.);
#327=ORIENTED_EDGE('',*,*,#364,.T.);
#328=ORIENTED_EDGE('',*,*,#367,.F.);
#329=ORIENTED_EDGE('',*,*,#370,.T.);
#330=ORIENTED_EDGE('',*,*,#373,.F.);
#331=ORIENTED_EDGE('',*,*,#376,.F.);
#332=ORIENTED_EDGE('',*,*,#379,.F.);
#333=ORIENTED_EDGE('',*,*,#382,.F.);
#334=ORIENTED_EDGE('',*,*,#385,.F.);
#335=ORIENTED_EDGE('',*,*,#388,.F.);
#336=ORIENTED_EDGE('',*,*,#391,.F.);
#337=ORIENTED_EDGE('',*,*,#394,.F.);
#338=ORIENTED_EDGE('',*,*,#397,.F.);
#339=ORIENTED_EDGE('',*,*,#400,.F.);
#340=CARTESIAN_POINT('',(-3.8702374638433E-13,31.069668700788,0.0));
#341=DIRECTION('',(0.0,0.0,1.0));
#342=DIRECTION('',(1.0,0.0,0.0));
#343=EDGE_CURVE('',#403,#404,#405,.T.);
#344=EDGE_CURVE('',#406,#404,#407,.T.);
#345=EDGE_CURVE('',#406,#408,#409,.T.);
#346=EDGE_CURVE('',#408,#403,#410,.T.);
#347=EDGE_CURVE('',#404,#411,#412,.T.);
#348=EDGE_CURVE('',#413,#411,#414,.T.);
#349=EDGE_CURVE('',#406,#413,#415,.T.);
#350=EDGE_CURVE('',#411,#416,#417,.T.);
#351=EDGE_CURVE('',#418,#416,#419,.T.);
#352=EDGE_CURVE('',#413,#418,#420,.T.);
#353=EDGE_CURVE('',#416,#421,#422,.T.);
#354=EDGE_CURVE('',#423,#421,#424,.T.);
#355=EDGE_CURVE('',#418,#423,#425,.T.);
#356=EDGE_CURVE('',#421,#426,#427,.T.);
#357=EDGE_CURVE('',#428,#426,#429,.T.);
#358=EDGE_CURVE('',#423,#428,#430,.T.);
#359=EDGE_CURVE('',#426,#431,#432,.T.);
#360=EDGE_CURVE('',#433,#431,#434,.T.);
#361=EDGE_CURVE('',#433,#428,#435,.T.);
#362=EDGE_CURVE('',#431,#436,#437,.T.);
#363=EDGE_CURVE('',#438,#436,#439,.T.);
#364=EDGE_CURVE('',#433,#438,#440,.T.);
#365=EDGE_CURVE('',#436,#441,#442,.T.);
#366=EDGE_CURVE('',#443,#441,#444,.T.);
#367=EDGE_CURVE('',#443,#438,#445,.T.);
#368=EDGE_CURVE('',#441,#446,#447,.T.);
#369=EDGE_CURVE('',#448,#446,#449,.T.);
#370=EDGE_CURVE('',#443,#448,#450,.T.);
#371=EDGE_CURVE('',#446,#451,#452,.T.);
#372=EDGE_CURVE('',#453,#451,#454,.T.);
#373=EDGE_CURVE('',#453,#448,#455,.T.);
#374=EDGE_CURVE('',#451,#456,#457,.T.);
#375=EDGE_CURVE('',#458,#456,#459,.T.);
#376=EDGE_CURVE('',#458,#453,#460,.T.);
#377=EDGE_CURVE('',#456,#461,#462,.T.);
#378=EDGE_CURVE('',#463,#461,#464,.T.);
#379=EDGE_CURVE('',#463,#458,#465,.T.);
#380=EDGE_CURVE('',#461,#466,#467,.T.);
#381=EDGE_CURVE('',#468,#466,#469,.T.);
#382=EDGE_CURVE('',#468,#463,#470,.T.);
#383=EDGE_CURVE('',#466,#471,#472,.T.);
#384=EDGE_CURVE('',#473,#471,#474,.T.);
#385=EDGE_CURVE('',#473,#468,#475,.T.);
#386=EDGE_CURVE('',#471,#476,#477,.T.);
#387=EDGE_CURVE('',#478,#476,#479,.T.);
#388=EDGE_CURVE('',#478,#473,#480,.T.);
#389=EDGE_CURVE('',#476,#481,#482,.T.);
#390=EDGE_CURVE('',#483,#481,#484,.T.);
#391=EDGE_CURVE('',#483,#478,#485,.T.);
#392=EDGE_CURVE('',#481,#486,#487,.T.);
#393=EDGE_CURVE('',#488,#486,#489,.T.);
#394=EDGE_CURVE('',#488,#483,#490,.T.);
#395=EDGE_CURVE('',#486,#491,#492,.T.);
#396=EDGE_CURVE('',#493,#491,#494,.T.);
#397=EDGE_CURVE('',#493,#488,#495,.T.);
#398=EDGE_CURVE('',#491,#496,#497,.T.);
#399=EDGE_CURVE('',#498,#496,#499,.T.);
#400=EDGE_CURVE('',#498,#493,#500,.T.);
#401=EDGE_CURVE('',#496,#403,#501,.T.);
#402=EDGE_CURVE('',#408,#498,#502,.T.);
#403=VERTEX_POINT('',#503);
#404=VERTEX_POINT('',#504);
#405=CIRCLE('',#505,3.0);
#406=VERTEX_POINT('',#506);
#407=LINE('',#507,#508);
#408=VERTEX_POINT('',#509);
#409=CIRCLE('',#510,3.0);
#410=LINE('',#511,#512);
#411=VERTEX_POINT('',#513);
#412=LINE('',#514,#515);
#413=VERTEX_POINT('',#516);
#414=LINE('',#517,#518);
#415=LINE('',#519,#520);
#416=VERTEX_POINT('',#521);
#417=CIRCLE('',#522,6.0);
#418=VERTEX_POINT('',#523);
#419=LINE('',#524,#525);
#420=CIRCLE('',#526,6.0);
#421=VERTEX_POINT('',#527);
#422=LINE('',#528,#529);
#423=VERTEX_POINT('',#530);
#424=LINE('',#531,#532);
#425=LINE('',#533,#534);
#426=VERTEX_POINT('',#535);
#427=CIRCLE('',#536,6.0);
#428=VERTEX_POINT('',#537);
#429=LINE('',#538,#539);
#430=CIRCLE('',#540,6.0);
#431=VERTEX_POINT('',#541);
#432=LINE('',#542,#543);
#433=VERTEX_POINT('',#544);
#434=LINE('',#545,#546);
#435=LINE('',#547,#548);
#436=VERTEX_POINT('',#549);
#437=CIRCLE('',#550,6.0);
#438=VERTEX_POINT('',#551);
#439=LINE('',#552,#553);
#440=CIRCLE('',#554,6.0);
#441=VERTEX_POINT('',#555);
#442=LINE('',#556,#557);
#443=VERTEX_POINT('',#558);
#444=LINE('',#559,#560);
#445=LINE('',#561,#562);
#446=VERTEX_POINT('',#563);
#447=CIRCLE('',#564,6.0);
#448=VERTEX_POINT('',#565);
#449=LINE('',#566,#567);
#450=CIRCLE('',#568,6.0);
#451=VERTEX_POINT('',#569);
#452=LINE('',#570,#571);
#453=VERTEX_POINT('',#572);
#454=LINE('',#573,#574);
#455=LINE('',#575,#576);
#456=VERTEX_POINT('',#577);
#457=CIRCLE('',#578,3.0);
#458=VERTEX_POINT('',#579);
#459=LINE('',#580,#581);
#460=CIRCLE('',#582,3.0);
#461=VERTEX_POINT('',#583);
#462=LINE('',#584,#585);
#463=VERTEX_POINT('',#586);
#464=LINE('',#587,#588);
#465=LINE('',#589,#590);
#466=VERTEX_POINT('',#591);
#467=CIRCLE('',#592,6.0);
#468=VERTEX_POINT('',#593);
#469=LINE('',#594,#595);
#470=CIRCLE('',#596,6.0);
#471=VERTEX_POINT('',#597);
#472=LINE('',#598,#599);
#473=VERTEX_POINT('',#600);
#474=LINE('',#601,#602);
#475=LINE('',#603,#604);
#476=VERTEX_POINT('',#605);
#477=CIRCLE('',#606,6.0);
#478=VERTEX_POINT('',#607);
#479=LINE('',#608,#609);
#480=CIRCLE('',#610,6.0);
#481=VERTEX_POINT('',#611);
#482=LINE('',#612,#613);
#483=VERTEX_POINT('',#614);
#484=LINE('',#615,#616);
#485=LINE('',#617,#618);
#486=VERTEX_POINT('',#619);
#487=CIRCLE('',#620,6.0);
#488=VERTEX_POINT('',#621);
#489=LINE('',#622,#623);
#490=CIRCLE('',#624,6.0);
#491=VERTEX_POINT('',#625);
#492=LINE('',#626,#627);
#493=VERTEX_POINT('',#628);
#494=LINE('',#629,#630);
#495=LINE('',#631,#632);
#496=VERTEX_POINT('',#633);
#497=CIRCLE('',#634,6.0);
#498=VERTEX_POINT('',#635);
#499=LINE('',#636,#637);
#500=CIRCLE('',#638,6.0);
#501=LINE('',#639,#640);
#502=LINE('',#641,#642);
#503=CARTESIAN_POINT('',(-93.55,90.0,1000.0));
#504=CARTESIAN_POINT('',(-90.55,87.0,1000.0));
#505=AXIS2_PLACEMENT_3D('',#643,#644,#645);
#506=CARTESIAN_POINT('',(-90.55,87.0,0.0));
#507=CARTESIAN_POINT('',(-90.55,87.0,0.0));
#508=VECTOR('',#646,1.0);
#509=CARTESIAN_POINT('',(-93.55,90.0,0.0));
#510=AXIS2_PLACEMENT_3D('',#647,#648,#649);
#511=CARTESIAN_POINT('',(-93.55,90.0,0.0));
#512=VECTOR('',#650,1.0);
#513=CARTESIAN_POINT('',(-90.55,29.0846584384,1000.0));
#514=CARTESIAN_POINT('',(-90.55,87.0,1000.0));
#515=VECTOR('',#651,1.0);
#516=CARTESIAN_POINT('',(-90.55,29.0846584384,0.0));
#517=CARTESIAN_POINT('',(-90.55,29.0846584384,0.0));
#518=VECTOR('',#652,1.0);
#519=CARTESIAN_POINT('',(-90.55,87.0,0.0));
#520=VECTOR('',#653,1.0);
#521=CARTESIAN_POINT('',(-86.0052137502153,23.2638034375273,1000.0));
#522=AXIS2_PLACEMENT_3D('',#654,#655,#656);
#523=CARTESIAN_POINT('',(-86.0052137502153,23.2638034375273,0.0));
#524=CARTESIAN_POINT('',(-86.0052137502153,23.2638034375273,0.0));
#525=VECTOR('',#657,1.0);
#526=AXIS2_PLACEMENT_3D('',#658,#659,#660);
#527=CARTESIAN_POINT('',(-71.2665799965153,19.5791449991273,1000.0));
#528=CARTESIAN_POINT('',(-86.0052137502153,23.2638034375273,1000.0));
#529=VECTOR('',#661,1.0);
#530=CARTESIAN_POINT('',(-71.2665799965153,19.5791449991273,0.0));
#531=CARTESIAN_POINT('',(-71.2665799965153,19.5791449991273,0.0));
#532=VECTOR('',#662,1.0);
#533=CARTESIAN_POINT('',(-86.0052137502153,23.2638034375273,0.0));
#534=VECTOR('',#663,1.0);
#535=CARTESIAN_POINT('',(-69.8113662463,19.4,1000.0));
#536=AXIS2_PLACEMENT_3D('',#664,#665,#666);
#537=CARTESIAN_POINT('',(-69.8113662463,19.4,0.0));
#538=CARTESIAN_POINT('',(-69.8113662463,19.4,0.0));
#539=VECTOR('',#667,1.0);
#540=AXIS2_PLACEMENT_3D('',#668,#669,#670);
#541=CARTESIAN_POINT('',(69.8113662462,19.4,1000.0));
#542=CARTESIAN_POINT('',(69.8113662462,19.4,1000.0));
#543=VECTOR('',#671,1.0);
#544=CARTESIAN_POINT('',(69.8113662462,19.4,0.0));
#545=CARTESIAN_POINT('',(69.8113662462,19.4,0.0));
#546=VECTOR('',#672,1.0);
#547=CARTESIAN_POINT('',(69.8113662462,19.4,0.0));
#548=VECTOR('',#673,1.0);
#549=CARTESIAN_POINT('',(71.2665799964153,19.5791449991273,1000.0));
#550=AXIS2_PLACEMENT_3D('',#674,#675,#676);
#551=CARTESIAN_POINT('',(71.2665799964153,19.5791449991273,0.0));
#552=CARTESIAN_POINT('',(71.2665799964153,19.5791449991273,0.0));
#553=VECTOR('',#677,1.0);
#554=AXIS2_PLACEMENT_3D('',#678,#679,#680);
#555=CARTESIAN_POINT('',(86.0052137502,23.2638034376,1000.0));
#556=CARTESIAN_POINT('',(86.0052137502,23.2638034376,1000.0));
#557=VECTOR('',#681,1.0);
#558=CARTESIAN_POINT('',(86.0052137502,23.2638034376,0.0));
#559=CARTESIAN_POINT('',(86.0052137502,23.2638034376,0.0));
#560=VECTOR('',#682,1.0);
#561=CARTESIAN_POINT('',(86.0052137502,23.2638034376,0.0));
#562=VECTOR('',#683,1.0);
#563=CARTESIAN_POINT('',(90.55,29.0846584384,1000.0));
#564=AXIS2_PLACEMENT_3D('',#684,#685,#686);
#565=CARTESIAN_POINT('',(90.55,29.0846584384,0.0));
#566=CARTESIAN_POINT('',(90.55,29.0846584384,0.0));
#567=VECTOR('',#687,1.0);
#568=AXIS2_PLACEMENT_3D('',#688,#689,#690);
#569=CARTESIAN_POINT('',(90.55,87.0,1000.0));
#570=CARTESIAN_POINT('',(90.55,87.0,1000.0));
#571=VECTOR('',#691,1.0);
#572=CARTESIAN_POINT('',(90.55,87.0,0.0));
#573=CARTESIAN_POINT('',(90.55,87.0,0.0));
#574=VECTOR('',#692,1.0);
#575=CARTESIAN_POINT('',(90.55,87.0,0.0));
#576=VECTOR('',#693,1.0);
#577=CARTESIAN_POINT('',(93.55,90.0,1000.0));
#578=AXIS2_PLACEMENT_3D('',#694,#695,#696);
#579=CARTESIAN_POINT('',(93.55,90.0,0.0));
#580=CARTESIAN_POINT('',(93.55,90.0,0.0));
#581=VECTOR('',#697,1.0);
#582=AXIS2_PLACEMENT_3D('',#698,#699,#700);
#583=CARTESIAN_POINT('',(120.25,90.0,1000.0));
#584=CARTESIAN_POINT('',(120.25,90.0,1000.0));
#585=VECTOR('',#701,1.0);
#586=CARTESIAN_POINT('',(120.25,90.0,0.0));
#587=CARTESIAN_POINT('',(120.25,90.0,0.0));
#588=VECTOR('',#702,1.0);
#589=CARTESIAN_POINT('',(120.25,90.0,0.0));
#590=VECTOR('',#703,1.0);
#591=CARTESIAN_POINT('',(126.25,84.0,1000.0));
#592=AXIS2_PLACEMENT_3D('',#704,#705,#706);
#593=CARTESIAN_POINT('',(126.25,84.0,0.0));
#594=CARTESIAN_POINT('',(126.25,84.0,0.0));
#595=VECTOR('',#707,1.0);
#596=AXIS2_PLACEMENT_3D('',#708,#709,#710);
#597=CARTESIAN_POINT('',(126.25,6.0,1000.0));
#598=CARTESIAN_POINT('',(126.25,6.0,1000.0));
#599=VECTOR('',#711,1.0);
#600=CARTESIAN_POINT('',(126.25,6.0,0.0));
#601=CARTESIAN_POINT('',(126.25,6.0,0.0));
#602=VECTOR('',#712,1.0);
#603=CARTESIAN_POINT('',(126.25,6.0,0.0));
#604=VECTOR('',#713,1.0);
#605=CARTESIAN_POINT('',(120.25,0.0,1000.0));
#606=AXIS2_PLACEMENT_3D('',#714,#715,#716);
#607=CARTESIAN_POINT('',(120.25,0.0,0.0));
#608=CARTESIAN_POINT('',(120.25,0.0,0.0));
#609=VECTOR('',#717,1.0);
#610=AXIS2_PLACEMENT_3D('',#718,#719,#720);
#611=CARTESIAN_POINT('',(-120.25,0.0,1000.0));
#612=CARTESIAN_POINT('',(-120.25,0.0,1000.0));
#613=VECTOR('',#721,1.0);
#614=CARTESIAN_POINT('',(-120.25,0.0,0.0));
#615=CARTESIAN_POINT('',(-120.25,0.0,0.0));
#616=VECTOR('',#722,1.0);
#617=CARTESIAN_POINT('',(-120.25,0.0,0.0));
#618=VECTOR('',#723,1.0);
#619=CARTESIAN_POINT('',(-126.25,6.0,1000.0));
#620=AXIS2_PLACEMENT_3D('',#724,#725,#726);
#621=CARTESIAN_POINT('',(-126.25,6.0,0.0));
#622=CARTESIAN_POINT('',(-126.25,6.0,0.0));
#623=VECTOR('',#727,1.0);
#624=AXIS2_PLACEMENT_3D('',#728,#729,#730);
#625=CARTESIAN_POINT('',(-126.25,84.0,1000.0));
#626=CARTESIAN_POINT('',(-126.25,84.0,1000.0));
#627=VECTOR('',#731,1.0);
#628=CARTESIAN_POINT('',(-126.25,84.0,0.0));
#629=CARTESIAN_POINT('',(-126.25,84.0,0.0));
#630=VECTOR('',#732,1.0);
#631=CARTESIAN_POINT('',(-126.25,84.0,0.0));
#632=VECTOR('',#733,1.0);
#633=CARTESIAN_POINT('',(-120.25,90.0,1000.0));
#634=AXIS2_PLACEMENT_3D('',#734,#735,#736);
#635=CARTESIAN_POINT('',(-120.25,90.0,0.0));
#636=CARTESIAN_POINT('',(-120.25,90.0,0.0));
#637=VECTOR('',#737,1.0);
#638=AXIS2_PLACEMENT_3D('',#738,#739,#740);
#639=CARTESIAN_POINT('',(-93.55,90.0,1000.0));
#640=VECTOR('',#741,1.0);
#641=CARTESIAN_POINT('',(-93.55,90.0,0.0));
#642=VECTOR('',#742,1.0);
#643=CARTESIAN_POINT('',(-93.55,87.0,1000.0));
#644=DIRECTION('',(0.0,0.0,-1.0));
#645=DIRECTION('',(1.0,0.0,0.0));
#646=DIRECTION('',(0.0,0.0,1.0));
#647=CARTESIAN_POINT('',(-93.55,87.0,0.0));
#648=DIRECTION('',(0.0,0.0,1.0));
#649=DIRECTION('',(1.0,0.0,0.0));
#650=DIRECTION('',(0.0,0.0,1.0));
#651=DIRECTION('',(0.0,-1.0,0.0));
#652=DIRECTION('',(0.0,0.0,1.0));
#653=DIRECTION('',(0.0,-1.0,0.0));
#654=CARTESIAN_POINT('',(-84.55,29.0846584384,1000.0));
#655=DIRECTION('',(0.0,0.0,1.0));
#656=DIRECTION('',(1.0,0.0,0.0));
#657=DIRECTION('',(0.0,0.0,1.0));
#658=CARTESIAN_POINT('',(-84.55,29.0846584384,0.0));
#659=DIRECTION('',(0.0,0.0,1.0));
#660=DIRECTION('',(1.0,0.0,0.0));
#661=DIRECTION('',(0.970142500145719,-0.242535625034784,0.0));
#662=DIRECTION('',(0.0,0.0,1.0));
#663=DIRECTION('',(0.970142500145719,-0.242535625034784,0.0));
#664=CARTESIAN_POINT('',(-69.8113662463,25.4,1000.0));
#665=DIRECTION('',(0.0,0.0,1.0));
#666=DIRECTION('',(1.0,0.0,0.0));
#667=DIRECTION('',(0.0,0.0,1.0));
#668=CARTESIAN_POINT('',(-69.8113662463,25.4,0.0));
#669=DIRECTION('',(0.0,0.0,1.0));
#670=DIRECTION('',(1.0,0.0,0.0));
#671=DIRECTION('',(1.0,0.0,0.0));
#672=DIRECTION('',(0.0,0.0,1.0));
#673=DIRECTION('',(-1.0,0.0,0.0));
#674=CARTESIAN_POINT('',(69.8113662462,25.4,1000.0));
#675=DIRECTION('',(0.0,0.0,1.0));
#676=DIRECTION('',(1.0,0.0,0.0));
#677=DIRECTION('',(0.0,0.0,1.0));
#678=CARTESIAN_POINT('',(69.8113662462,25.4,0.0));
#679=DIRECTION('',(0.0,0.0,1.0));
#680=DIRECTION('',(1.0,0.0,0.0));
#681=DIRECTION('',(0.97014250014417,0.242535625040981,0.0));
#682=DIRECTION('',(0.0,0.0,1.0));
#683=DIRECTION('',(-0.97014250014417,-0.242535625040981,0.0));
#684=CARTESIAN_POINT('',(84.55,29.0846584384,1000.0));
#685=DIRECTION('',(0.0,0.0,1.0));
#686=DIRECTION('',(1.0,0.0,0.0));
#687=DIRECTION('',(0.0,0.0,1.0));
#688=CARTESIAN_POINT('',(84.55,29.0846584384,0.0));
#689=DIRECTION('',(0.0,0.0,1.0));
#690=DIRECTION('',(1.0,0.0,0.0));
#691=DIRECTION('',(0.0,1.0,0.0));
#692=DIRECTION('',(0.0,0.0,1.0));
#693=DIRECTION('',(0.0,-1.0,0.0));
#694=CARTESIAN_POINT('',(93.55,87.0,1000.0));
#695=DIRECTION('',(0.0,0.0,-1.0));
#696=DIRECTION('',(1.0,0.0,0.0));
#697=DIRECTION('',(0.0,0.0,1.0));
#698=CARTESIAN_POINT('',(93.55,87.0,0.0));
#699=DIRECTION('',(0.0,0.0,1.0));
#700=DIRECTION('',(1.0,0.0,0.0));
#701=DIRECTION('',(1.0,0.0,0.0));
#702=DIRECTION('',(0.0,0.0,1.0));
#703=DIRECTION('',(-1.0,0.0,0.0));
#704=CARTESIAN_POINT('',(120.25,84.0,1000.0));
#705=DIRECTION('',(0.0,0.0,-1.0));
#706=DIRECTION('',(1.0,0.0,0.0));
#707=DIRECTION('',(0.0,0.0,1.0));
#708=CARTESIAN_POINT('',(120.25,84.0,0.0));
#709=DIRECTION('',(0.0,0.0,1.0));
#710=DIRECTION('',(1.0,0.0,0.0));
#711=DIRECTION('',(-0.0,-1.0,-0.0));
#712=DIRECTION('',(0.0,0.0,1.0));
#713=DIRECTION('',(0.0,1.0,0.0));
#714=CARTESIAN_POINT('',(120.25,6.0,1000.0));
#715=DIRECTION('',(0.0,0.0,-1.0));
#716=DIRECTION('',(1.0,0.0,0.0));
#717=DIRECTION('',(0.0,0.0,1.0));
#718=CARTESIAN_POINT('',(120.25,6.0,0.0));
#719=DIRECTION('',(0.0,0.0,1.0));
#720=DIRECTION('',(1.0,0.0,0.0));
#721=DIRECTION('',(-1.0,-0.0,-0.0));
#722=DIRECTION('',(0.0,0.0,1.0));
#723=DIRECTION('',(1.0,0.0,0.0));
#724=CARTESIAN_POINT('',(-120.25,6.0,1000.0));
#725=DIRECTION('',(0.0,0.0,-1.0));
#726=DIRECTION('',(1.0,0.0,0.0));
#727=DIRECTION('',(0.0,0.0,1.0));
#728=CARTESIAN_POINT('',(-120.25,6.0,0.0));
#729=DIRECTION('',(0.0,0.0,1.0));
#730=DIRECTION('',(1.0,0.0,0.0));
#731=DIRECTION('',(0.0,1.0,0.0));
#732=DIRECTION('',(0.0,0.0,1.0));
#733=DIRECTION('',(0.0,-1.0,0.0));
#734=CARTESIAN_POINT('',(-120.25,84.0,1000.0));
#735=DIRECTION('',(0.0,0.0,-1.0));
#736=DIRECTION('',(1.0,0.0,0.0));
#737=DIRECTION('',(0.0,0.0,1.0));
#738=CARTESIAN_POINT('',(-120.25,84.0,0.0));
#739=DIRECTION('',(0.0,0.0,1.0));
#740=DIRECTION('',(1.0,0.0,0.0));
#741=DIRECTION('',(1.0,0.0,0.0));
#742=DIRECTION('',(-1.0,0.0,0.0));
ENDSEC;
END-ISO-10303-21;
