ISO-10303-21;
HEADER;
FILE_DESCRIPTION(('STEP AP214'),'1');
FILE_NAME('standard_2_nbv_1000.stp','2021-07-08T10:22:28',('TraceParts'),('TraceParts S.A.'),'Spatial InterOp 3D',' ',' ');
FILE_SCHEMA(('AUTOMOTIVE_DESIGN { 1 0 10303 214 1 1 1 1 }'));
ENDSEC;
DATA;
#1=PRODUCT_DEFINITION_CONTEXT('',#9,'design');
#2=APPLICATION_PROTOCOL_DEFINITION('INTERNATIONAL STANDARD','automotive_design',1994,#9);
#3=PRODUCT_CATEGORY_RELATIONSHIP('NONE','NONE',#10,#11);
#4=SHAPE_DEFINITION_REPRESENTATION(#12,#13);
#5= (GEOMETRIC_REPRESENTATION_CONTEXT(3)GLOBAL_UNCERTAINTY_ASSIGNED_CONTEXT((#16))GLOBAL_UNIT_ASSIGNED_CONTEXT((#18,#19,#20))REPRESENTATION_CONTEXT('NONE','WORKSPACE'));
#9=APPLICATION_CONTEXT(' ');
#10=PRODUCT_CATEGORY('part','NONE');
#11=PRODUCT_RELATED_PRODUCT_CATEGORY('detail',' ',(#22));
#12=PRODUCT_DEFINITION_SHAPE('NONE','NONE',#23);
#13=ADVANCED_BREP_SHAPE_REPRESENTATION('standard_2_nbv_1000',(#24,#25),#5);
#16=UNCERTAINTY_MEASURE_WITH_UNIT(LENGTH_MEASURE(1.0E-06),#18,'','');
#18= (CONVERSION_BASED_UNIT('MILLIMETRE',#28)LENGTH_UNIT()NAMED_UNIT(#31));
#19= (NAMED_UNIT(#33)PLANE_ANGLE_UNIT()SI_UNIT($,.RADIAN.));
#20= (NAMED_UNIT(#33)SOLID_ANGLE_UNIT()SI_UNIT($,.STERADIAN.));
#22=PRODUCT('standard_2_nbv_1000','standard_2_nbv_1000','PART-standard_2_nbv_1000-DESC',(#39));
#23=PRODUCT_DEFINITION('','NONE',#40,#1);
#24=MANIFOLD_SOLID_BREP('standard_2_nbv_1000',#41);
#25=AXIS2_PLACEMENT_3D('',#42,#43,#44);
#28=LENGTH_MEASURE_WITH_UNIT(LENGTH_MEASURE(1.0),#45);
#31=DIMENSIONAL_EXPONENTS(1.0,0.0,0.0,0.0,0.0,0.0,0.0);
#33=DIMENSIONAL_EXPONENTS(0.0,0.0,0.0,0.0,0.0,0.0,0.0);
#39=PRODUCT_CONTEXT('',#9,'mechanical');
#40=PRODUCT_DEFINITION_FORMATION_WITH_SPECIFIED_SOURCE(' ','NONE',#22,.NOT_KNOWN.);
#41=CLOSED_SHELL('',(#46,#47,#48,#49,#50,#51,#52,#53,#54,#55,#56,#57,#58,#59,#60,#61,#62,#63,#64,#65));
#42=CARTESIAN_POINT('',(0.0,0.0,0.0));
#43=DIRECTION('',(0.0,0.0,1.0));
#44=DIRECTION('',(1.0,0.0,0.0));
#45= (NAMED_UNIT(#31)LENGTH_UNIT()SI_UNIT(.MILLI.,.METRE.));
#46=ADVANCED_FACE('',(#67),#68,.F.);
#47=ADVANCED_FACE('',(#69),#70,.T.);
#48=ADVANCED_FACE('',(#71),#72,.T.);
#49=ADVANCED_FACE('',(#73),#74,.T.);
#50=ADVANCED_FACE('',(#75),#76,.T.);
#51=ADVANCED_FACE('',(#77),#78,.T.);
#52=ADVANCED_FACE('',(#79),#80,.T.);
#53=ADVANCED_FACE('',(#81),#82,.T.);
#54=ADVANCED_FACE('',(#83),#84,.F.);
#55=ADVANCED_FACE('',(#85),#86,.T.);
#56=ADVANCED_FACE('',(#87),#88,.T.);
#57=ADVANCED_FACE('',(#89),#90,.T.);
#58=ADVANCED_FACE('',(#91),#92,.T.);
#59=ADVANCED_FACE('',(#93),#94,.T.);
#60=ADVANCED_FACE('',(#95),#96,.T.);
#61=ADVANCED_FACE('',(#97),#98,.T.);
#62=ADVANCED_FACE('',(#99),#100,.F.);
#63=ADVANCED_FACE('',(#101),#102,.T.);
#64=ADVANCED_FACE('',(#103),#104,.T.);
#65=ADVANCED_FACE('',(#105),#106,.T.);
#67=FACE_OUTER_BOUND('',#107,.T.);
#68=CYLINDRICAL_SURFACE('',#108,2.0);
#69=FACE_OUTER_BOUND('',#109,.T.);
#70=PLANE('',#110);
#71=FACE_OUTER_BOUND('',#111,.T.);
#72=PLANE('',#112);
#73=FACE_OUTER_BOUND('',#113,.T.);
#74=CYLINDRICAL_SURFACE('',#114,2.0);
#75=FACE_OUTER_BOUND('',#115,.T.);
#76=PLANE('',#116);
#77=FACE_OUTER_BOUND('',#117,.T.);
#78=CYLINDRICAL_SURFACE('',#118,2.0);
#79=FACE_OUTER_BOUND('',#119,.T.);
#80=CYLINDRICAL_SURFACE('',#120,2.0);
#81=FACE_OUTER_BOUND('',#121,.T.);
#82=PLANE('',#122);
#83=FACE_OUTER_BOUND('',#123,.T.);
#84=CYLINDRICAL_SURFACE('',#124,2.0);
#85=FACE_OUTER_BOUND('',#125,.T.);
#86=PLANE('',#126);
#87=FACE_OUTER_BOUND('',#127,.T.);
#88=PLANE('',#128);
#89=FACE_OUTER_BOUND('',#129,.T.);
#90=CYLINDRICAL_SURFACE('',#130,2.0);
#91=FACE_OUTER_BOUND('',#131,.T.);
#92=PLANE('',#132);
#93=FACE_OUTER_BOUND('',#133,.T.);
#94=PLANE('',#134);
#95=FACE_OUTER_BOUND('',#135,.T.);
#96=CYLINDRICAL_SURFACE('',#136,2.0);
#97=FACE_OUTER_BOUND('',#137,.T.);
#98=CYLINDRICAL_SURFACE('',#138,2.0);
#99=FACE_OUTER_BOUND('',#139,.T.);
#100=PLANE('',#140);
#101=FACE_OUTER_BOUND('',#141,.T.);
#102=PLANE('',#142);
#103=FACE_OUTER_BOUND('',#143,.T.);
#104=PLANE('',#144);
#105=FACE_OUTER_BOUND('',#145,.T.);
#106=PLANE('',#146);
#107=EDGE_LOOP('',(#147,#148,#149,#150));
#108=AXIS2_PLACEMENT_3D('',#151,#152,#153);
#109=EDGE_LOOP('',(#154,#155,#156,#157));
#110=AXIS2_PLACEMENT_3D('',#158,#159,#160);
#111=EDGE_LOOP('',(#161,#162,#163,#164));
#112=AXIS2_PLACEMENT_3D('',#165,#166,#167);
#113=EDGE_LOOP('',(#168,#169,#170,#171));
#114=AXIS2_PLACEMENT_3D('',#172,#173,#174);
#115=EDGE_LOOP('',(#175,#176,#177,#178));
#116=AXIS2_PLACEMENT_3D('',#179,#180,#181);
#117=EDGE_LOOP('',(#182,#183,#184,#185));
#118=AXIS2_PLACEMENT_3D('',#186,#187,#188);
#119=EDGE_LOOP('',(#189,#190,#191,#192));
#120=AXIS2_PLACEMENT_3D('',#193,#194,#195);
#121=EDGE_LOOP('',(#196,#197,#198,#199));
#122=AXIS2_PLACEMENT_3D('',#200,#201,#202);
#123=EDGE_LOOP('',(#203,#204,#205,#206));
#124=AXIS2_PLACEMENT_3D('',#207,#208,#209);
#125=EDGE_LOOP('',(#210,#211,#212,#213));
#126=AXIS2_PLACEMENT_3D('',#214,#215,#216);
#127=EDGE_LOOP('',(#217,#218,#219,#220));
#128=AXIS2_PLACEMENT_3D('',#221,#222,#223);
#129=EDGE_LOOP('',(#224,#225,#226,#227));
#130=AXIS2_PLACEMENT_3D('',#228,#229,#230);
#131=EDGE_LOOP('',(#231,#232,#233,#234,#235,#236,#237,#238,#239,#240,#241,#242,#243,#244,#245,#246,#247,#248));
#132=AXIS2_PLACEMENT_3D('',#249,#250,#251);
#133=EDGE_LOOP('',(#252,#253,#254,#255));
#134=AXIS2_PLACEMENT_3D('',#256,#257,#258);
#135=EDGE_LOOP('',(#259,#260,#261,#262));
#136=AXIS2_PLACEMENT_3D('',#263,#264,#265);
#137=EDGE_LOOP('',(#266,#267,#268,#269));
#138=AXIS2_PLACEMENT_3D('',#270,#271,#272);
#139=EDGE_LOOP('',(#273,#274,#275,#276,#277,#278,#279,#280,#281,#282,#283,#284,#285,#286,#287,#288,#289,#290));
#140=AXIS2_PLACEMENT_3D('',#291,#292,#293);
#141=EDGE_LOOP('',(#294,#295,#296,#297));
#142=AXIS2_PLACEMENT_3D('',#298,#299,#300);
#143=EDGE_LOOP('',(#301,#302,#303,#304));
#144=AXIS2_PLACEMENT_3D('',#305,#306,#307);
#145=EDGE_LOOP('',(#308,#309,#310,#311));
#146=AXIS2_PLACEMENT_3D('',#312,#313,#314);
#147=ORIENTED_EDGE('',*,*,#315,.T.);
#148=ORIENTED_EDGE('',*,*,#316,.F.);
#149=ORIENTED_EDGE('',*,*,#317,.F.);
#150=ORIENTED_EDGE('',*,*,#318,.F.);
#151=CARTESIAN_POINT('',(-37.3499999999999,15.8,0.0));
#152=DIRECTION('',(-2.44921270764475E-16,0.0,1.0));
#153=DIRECTION('',(1.0,0.0,2.44921270764475E-16));
#154=ORIENTED_EDGE('',*,*,#319,.T.);
#155=ORIENTED_EDGE('',*,*,#320,.F.);
#156=ORIENTED_EDGE('',*,*,#321,.F.);
#157=ORIENTED_EDGE('',*,*,#316,.T.);
#158=CARTESIAN_POINT('',(-31.1662277660167,12.3513167019495,0.0));
#159=DIRECTION('',(0.221916814574261,0.975065601592638,5.43521482295324E-17));
#160=DIRECTION('',(-0.975065601592638,0.221916814574261,-2.38814306220797E-16));
#161=ORIENTED_EDGE('',*,*,#318,.T.);
#162=ORIENTED_EDGE('',*,*,#322,.T.);
#163=ORIENTED_EDGE('',*,*,#323,.T.);
#164=ORIENTED_EDGE('',*,*,#324,.T.);
#165=CARTESIAN_POINT('',(-39.35,25.9,1000.0));
#166=DIRECTION('',(1.0,0.0,1.22460635382238E-16));
#167=DIRECTION('',(0.0,-1.0,0.0));
#168=ORIENTED_EDGE('',*,*,#325,.F.);
#169=ORIENTED_EDGE('',*,*,#326,.T.);
#170=ORIENTED_EDGE('',*,*,#327,.F.);
#171=ORIENTED_EDGE('',*,*,#328,.F.);
#172=CARTESIAN_POINT('',(-58.65,2.0,1000.0));
#173=DIRECTION('',(1.22460635382238E-16,0.0,-1.0));
#174=DIRECTION('',(1.83690953073357E-16,-1.0,2.24949108273321E-32));
#175=ORIENTED_EDGE('',*,*,#328,.T.);
#176=ORIENTED_EDGE('',*,*,#329,.T.);
#177=ORIENTED_EDGE('',*,*,#330,.F.);
#178=ORIENTED_EDGE('',*,*,#331,.T.);
#179=CARTESIAN_POINT('',(-60.65,20.5,1000.0));
#180=DIRECTION('',(-1.0,0.0,-1.22460635382238E-16));
#181=DIRECTION('',(0.0,1.0,0.0));
#182=ORIENTED_EDGE('',*,*,#332,.F.);
#183=ORIENTED_EDGE('',*,*,#333,.T.);
#184=ORIENTED_EDGE('',*,*,#334,.F.);
#185=ORIENTED_EDGE('',*,*,#323,.F.);
#186=CARTESIAN_POINT('',(-41.35,39.0,1000.0));
#187=DIRECTION('',(1.22460635382238E-16,0.0,-1.0));
#188=DIRECTION('',(-6.12303176911189E-17,1.0,-7.49830360911069E-33));
#189=ORIENTED_EDGE('',*,*,#335,.F.);
#190=ORIENTED_EDGE('',*,*,#330,.T.);
#191=ORIENTED_EDGE('',*,*,#336,.F.);
#192=ORIENTED_EDGE('',*,*,#337,.F.);
#193=CARTESIAN_POINT('',(-58.65,39.0,1000.0));
#194=DIRECTION('',(1.22460635382238E-16,0.0,-1.0));
#195=DIRECTION('',(-1.0,0.0,-1.22460635382238E-16));
#196=ORIENTED_EDGE('',*,*,#333,.F.);
#197=ORIENTED_EDGE('',*,*,#338,.T.);
#198=ORIENTED_EDGE('',*,*,#337,.T.);
#199=ORIENTED_EDGE('',*,*,#339,.T.);
#200=CARTESIAN_POINT('',(-50.0,41.0,1000.0));
#201=DIRECTION('',(-0.0,1.0,0.0));
#202=DIRECTION('',(1.0,0.0,1.22460635382238E-16));
#203=ORIENTED_EDGE('',*,*,#340,.T.);
#204=ORIENTED_EDGE('',*,*,#341,.F.);
#205=ORIENTED_EDGE('',*,*,#342,.F.);
#206=ORIENTED_EDGE('',*,*,#343,.F.);
#207=CARTESIAN_POINT('',(37.35,15.8,1000.0));
#208=DIRECTION('',(1.22460635382238E-16,0.0,-1.0));
#209=DIRECTION('',(-1.0,0.0,-1.22460635382238E-16));
#210=ORIENTED_EDGE('',*,*,#344,.T.);
#211=ORIENTED_EDGE('',*,*,#345,.F.);
#212=ORIENTED_EDGE('',*,*,#346,.F.);
#213=ORIENTED_EDGE('',*,*,#341,.T.);
#214=CARTESIAN_POINT('',(31.1662277660168,12.3513167019495,1000.0));
#215=DIRECTION('',(-0.221916814574261,0.975065601592638,-2.71760741147662E-17));
#216=DIRECTION('',(0.975065601592638,0.221916814574261,1.19407153110398E-16));
#217=ORIENTED_EDGE('',*,*,#343,.T.);
#218=ORIENTED_EDGE('',*,*,#347,.T.);
#219=ORIENTED_EDGE('',*,*,#348,.T.);
#220=ORIENTED_EDGE('',*,*,#349,.T.);
#221=CARTESIAN_POINT('',(39.35,25.9,0.0));
#222=DIRECTION('',(-1.0,0.0,0.0));
#223=DIRECTION('',(0.0,-1.0,0.0));
#224=ORIENTED_EDGE('',*,*,#350,.F.);
#225=ORIENTED_EDGE('',*,*,#351,.T.);
#226=ORIENTED_EDGE('',*,*,#352,.F.);
#227=ORIENTED_EDGE('',*,*,#353,.F.);
#228=CARTESIAN_POINT('',(58.65,2.0,0.0));
#229=DIRECTION('',(0.0,0.0,1.0));
#230=DIRECTION('',(-1.83690953073357E-16,-1.0,0.0));
#231=ORIENTED_EDGE('',*,*,#350,.T.);
#232=ORIENTED_EDGE('',*,*,#354,.F.);
#233=ORIENTED_EDGE('',*,*,#355,.T.);
#234=ORIENTED_EDGE('',*,*,#356,.F.);
#235=ORIENTED_EDGE('',*,*,#357,.T.);
#236=ORIENTED_EDGE('',*,*,#347,.F.);
#237=ORIENTED_EDGE('',*,*,#342,.T.);
#238=ORIENTED_EDGE('',*,*,#346,.T.);
#239=ORIENTED_EDGE('',*,*,#358,.F.);
#240=ORIENTED_EDGE('',*,*,#319,.F.);
#241=ORIENTED_EDGE('',*,*,#315,.F.);
#242=ORIENTED_EDGE('',*,*,#324,.F.);
#243=ORIENTED_EDGE('',*,*,#334,.T.);
#244=ORIENTED_EDGE('',*,*,#339,.F.);
#245=ORIENTED_EDGE('',*,*,#336,.T.);
#246=ORIENTED_EDGE('',*,*,#329,.F.);
#247=ORIENTED_EDGE('',*,*,#327,.T.);
#248=ORIENTED_EDGE('',*,*,#359,.F.);
#249=CARTESIAN_POINT('',(36.170400885391,14.654599114609,1000.0));
#250=DIRECTION('',(0.0,0.0,1.0));
#251=DIRECTION('',(1.0,0.0,0.0));
#252=ORIENTED_EDGE('',*,*,#353,.T.);
#253=ORIENTED_EDGE('',*,*,#360,.T.);
#254=ORIENTED_EDGE('',*,*,#361,.F.);
#255=ORIENTED_EDGE('',*,*,#354,.T.);
#256=CARTESIAN_POINT('',(60.65,20.5,0.0));
#257=DIRECTION('',(1.0,0.0,0.0));
#258=DIRECTION('',(0.0,1.0,0.0));
#259=ORIENTED_EDGE('',*,*,#357,.F.);
#260=ORIENTED_EDGE('',*,*,#362,.T.);
#261=ORIENTED_EDGE('',*,*,#363,.F.);
#262=ORIENTED_EDGE('',*,*,#348,.F.);
#263=CARTESIAN_POINT('',(41.35,39.0,0.0));
#264=DIRECTION('',(0.0,-0.0,1.0));
#265=DIRECTION('',(6.12303176911189E-17,1.0,0.0));
#266=ORIENTED_EDGE('',*,*,#355,.F.);
#267=ORIENTED_EDGE('',*,*,#361,.T.);
#268=ORIENTED_EDGE('',*,*,#364,.F.);
#269=ORIENTED_EDGE('',*,*,#365,.F.);
#270=CARTESIAN_POINT('',(58.65,39.0,0.0));
#271=DIRECTION('',(0.0,0.0,1.0));
#272=DIRECTION('',(1.0,0.0,0.0));
#273=ORIENTED_EDGE('',*,*,#352,.T.);
#274=ORIENTED_EDGE('',*,*,#366,.F.);
#275=ORIENTED_EDGE('',*,*,#325,.T.);
#276=ORIENTED_EDGE('',*,*,#331,.F.);
#277=ORIENTED_EDGE('',*,*,#335,.T.);
#278=ORIENTED_EDGE('',*,*,#338,.F.);
#279=ORIENTED_EDGE('',*,*,#332,.T.);
#280=ORIENTED_EDGE('',*,*,#322,.F.);
#281=ORIENTED_EDGE('',*,*,#317,.T.);
#282=ORIENTED_EDGE('',*,*,#321,.T.);
#283=ORIENTED_EDGE('',*,*,#367,.F.);
#284=ORIENTED_EDGE('',*,*,#344,.F.);
#285=ORIENTED_EDGE('',*,*,#340,.F.);
#286=ORIENTED_EDGE('',*,*,#349,.F.);
#287=ORIENTED_EDGE('',*,*,#363,.T.);
#288=ORIENTED_EDGE('',*,*,#368,.F.);
#289=ORIENTED_EDGE('',*,*,#364,.T.);
#290=ORIENTED_EDGE('',*,*,#360,.F.);
#291=CARTESIAN_POINT('',(36.170400885391,14.654599114609,0.0));
#292=DIRECTION('',(0.0,0.0,1.0));
#293=DIRECTION('',(1.0,0.0,0.0));
#294=ORIENTED_EDGE('',*,*,#345,.T.);
#295=ORIENTED_EDGE('',*,*,#367,.T.);
#296=ORIENTED_EDGE('',*,*,#320,.T.);
#297=ORIENTED_EDGE('',*,*,#358,.T.);
#298=CARTESIAN_POINT('',(19.675,10.8,0.0));
#299=DIRECTION('',(1.35427459166474E-16,1.0,-0.0));
#300=DIRECTION('',(-1.0,1.35427459166474E-16,0.0));
#301=ORIENTED_EDGE('',*,*,#362,.F.);
#302=ORIENTED_EDGE('',*,*,#356,.T.);
#303=ORIENTED_EDGE('',*,*,#365,.T.);
#304=ORIENTED_EDGE('',*,*,#368,.T.);
#305=CARTESIAN_POINT('',(50.0,41.0,0.0));
#306=DIRECTION('',(0.0,1.0,-0.0));
#307=DIRECTION('',(-1.0,0.0,0.0));
#308=ORIENTED_EDGE('',*,*,#351,.F.);
#309=ORIENTED_EDGE('',*,*,#359,.T.);
#310=ORIENTED_EDGE('',*,*,#326,.F.);
#311=ORIENTED_EDGE('',*,*,#366,.T.);
#312=CARTESIAN_POINT('',(30.325,0.0,0.0));
#313=DIRECTION('',(0.0,-1.0,0.0));
#314=DIRECTION('',(1.0,0.0,0.0));
#315=EDGE_CURVE('',#369,#370,#371,.T.);
#316=EDGE_CURVE('',#372,#370,#373,.T.);
#317=EDGE_CURVE('',#374,#372,#375,.T.);
#318=EDGE_CURVE('',#369,#374,#376,.T.);
#319=EDGE_CURVE('',#370,#377,#378,.T.);
#320=EDGE_CURVE('',#379,#377,#380,.T.);
#321=EDGE_CURVE('',#372,#379,#381,.T.);
#322=EDGE_CURVE('',#374,#382,#383,.T.);
#323=EDGE_CURVE('',#382,#384,#385,.T.);
#324=EDGE_CURVE('',#384,#369,#386,.T.);
#325=EDGE_CURVE('',#387,#388,#389,.T.);
#326=EDGE_CURVE('',#387,#390,#391,.T.);
#327=EDGE_CURVE('',#392,#390,#393,.T.);
#328=EDGE_CURVE('',#388,#392,#394,.T.);
#329=EDGE_CURVE('',#392,#395,#396,.T.);
#330=EDGE_CURVE('',#397,#395,#398,.T.);
#331=EDGE_CURVE('',#397,#388,#399,.T.);
#332=EDGE_CURVE('',#400,#382,#401,.T.);
#333=EDGE_CURVE('',#400,#402,#403,.T.);
#334=EDGE_CURVE('',#384,#402,#404,.T.);
#335=EDGE_CURVE('',#397,#405,#406,.T.);
#336=EDGE_CURVE('',#407,#395,#408,.T.);
#337=EDGE_CURVE('',#405,#407,#409,.T.);
#338=EDGE_CURVE('',#400,#405,#410,.T.);
#339=EDGE_CURVE('',#407,#402,#411,.T.);
#340=EDGE_CURVE('',#412,#413,#414,.T.);
#341=EDGE_CURVE('',#415,#413,#416,.T.);
#342=EDGE_CURVE('',#417,#415,#418,.T.);
#343=EDGE_CURVE('',#412,#417,#419,.T.);
#344=EDGE_CURVE('',#413,#420,#421,.T.);
#345=EDGE_CURVE('',#422,#420,#423,.T.);
#346=EDGE_CURVE('',#415,#422,#424,.T.);
#347=EDGE_CURVE('',#417,#425,#426,.T.);
#348=EDGE_CURVE('',#425,#427,#428,.T.);
#349=EDGE_CURVE('',#427,#412,#429,.T.);
#350=EDGE_CURVE('',#430,#431,#432,.T.);
#351=EDGE_CURVE('',#430,#433,#434,.T.);
#352=EDGE_CURVE('',#435,#433,#436,.T.);
#353=EDGE_CURVE('',#431,#435,#437,.T.);
#354=EDGE_CURVE('',#438,#431,#439,.T.);
#355=EDGE_CURVE('',#438,#440,#441,.T.);
#356=EDGE_CURVE('',#442,#440,#443,.T.);
#357=EDGE_CURVE('',#442,#425,#444,.T.);
#358=EDGE_CURVE('',#377,#422,#445,.T.);
#359=EDGE_CURVE('',#430,#390,#446,.T.);
#360=EDGE_CURVE('',#435,#447,#448,.T.);
#361=EDGE_CURVE('',#438,#447,#449,.T.);
#362=EDGE_CURVE('',#442,#450,#451,.T.);
#363=EDGE_CURVE('',#427,#450,#452,.T.);
#364=EDGE_CURVE('',#453,#447,#454,.T.);
#365=EDGE_CURVE('',#440,#453,#455,.T.);
#366=EDGE_CURVE('',#387,#433,#456,.T.);
#367=EDGE_CURVE('',#420,#379,#457,.T.);
#368=EDGE_CURVE('',#453,#450,#458,.T.);
#369=VERTEX_POINT('',#459);
#370=VERTEX_POINT('',#460);
#371=CIRCLE('',#461,2.0);
#372=VERTEX_POINT('',#462);
#373=LINE('',#463,#464);
#374=VERTEX_POINT('',#465);
#375=CIRCLE('',#466,2.0);
#376=LINE('',#467,#468);
#377=VERTEX_POINT('',#469);
#378=LINE('',#470,#471);
#379=VERTEX_POINT('',#472);
#380=LINE('',#473,#474);
#381=LINE('',#475,#476);
#382=VERTEX_POINT('',#477);
#383=LINE('',#478,#479);
#384=VERTEX_POINT('',#480);
#385=LINE('',#481,#482);
#386=LINE('',#483,#484);
#387=VERTEX_POINT('',#485);
#388=VERTEX_POINT('',#486);
#389=CIRCLE('',#487,2.0);
#390=VERTEX_POINT('',#488);
#391=LINE('',#489,#490);
#392=VERTEX_POINT('',#491);
#393=CIRCLE('',#492,2.0);
#394=LINE('',#493,#494);
#395=VERTEX_POINT('',#495);
#396=LINE('',#496,#497);
#397=VERTEX_POINT('',#498);
#398=LINE('',#499,#500);
#399=LINE('',#501,#502);
#400=VERTEX_POINT('',#503);
#401=CIRCLE('',#504,2.0);
#402=VERTEX_POINT('',#505);
#403=LINE('',#506,#507);
#404=CIRCLE('',#508,2.0);
#405=VERTEX_POINT('',#509);
#406=CIRCLE('',#510,2.0);
#407=VERTEX_POINT('',#511);
#408=CIRCLE('',#512,2.0);
#409=LINE('',#513,#514);
#410=LINE('',#515,#516);
#411=LINE('',#517,#518);
#412=VERTEX_POINT('',#519);
#413=VERTEX_POINT('',#520);
#414=CIRCLE('',#521,2.0);
#415=VERTEX_POINT('',#522);
#416=LINE('',#523,#524);
#417=VERTEX_POINT('',#525);
#418=CIRCLE('',#526,2.0);
#419=LINE('',#527,#528);
#420=VERTEX_POINT('',#529);
#421=LINE('',#530,#531);
#422=VERTEX_POINT('',#532);
#423=LINE('',#533,#534);
#424=LINE('',#535,#536);
#425=VERTEX_POINT('',#537);
#426=LINE('',#538,#539);
#427=VERTEX_POINT('',#540);
#428=LINE('',#541,#542);
#429=LINE('',#543,#544);
#430=VERTEX_POINT('',#545);
#431=VERTEX_POINT('',#546);
#432=CIRCLE('',#547,2.0);
#433=VERTEX_POINT('',#548);
#434=LINE('',#549,#550);
#435=VERTEX_POINT('',#551);
#436=CIRCLE('',#552,2.0);
#437=LINE('',#553,#554);
#438=VERTEX_POINT('',#555);
#439=LINE('',#556,#557);
#440=VERTEX_POINT('',#558);
#441=CIRCLE('',#559,2.0);
#442=VERTEX_POINT('',#560);
#443=LINE('',#561,#562);
#444=CIRCLE('',#563,2.0);
#445=LINE('',#564,#565);
#446=LINE('',#566,#567);
#447=VERTEX_POINT('',#568);
#448=LINE('',#569,#570);
#449=LINE('',#571,#572);
#450=VERTEX_POINT('',#573);
#451=LINE('',#574,#575);
#452=CIRCLE('',#576,2.0);
#453=VERTEX_POINT('',#577);
#454=CIRCLE('',#578,2.0);
#455=LINE('',#579,#580);
#456=LINE('',#581,#582);
#457=LINE('',#583,#584);
#458=LINE('',#585,#586);
#459=CARTESIAN_POINT('',(-39.3500000000001,15.8,1000.0));
#460=CARTESIAN_POINT('',(-37.9824555320338,13.902633403899,1000.0));
#461=AXIS2_PLACEMENT_3D('',#587,#588,#589);
#462=CARTESIAN_POINT('',(-37.9824555320336,13.902633403899,0.0));
#463=CARTESIAN_POINT('',(-37.9824555320336,13.902633403899,0.0));
#464=VECTOR('',#590,1.0);
#465=CARTESIAN_POINT('',(-39.3499999999999,15.8,0.0));
#466=AXIS2_PLACEMENT_3D('',#591,#592,#593);
#467=CARTESIAN_POINT('',(-39.3499999999999,15.8,500.0));
#468=VECTOR('',#594,1.0);
#469=CARTESIAN_POINT('',(-24.3500000000001,10.8,1000.0));
#470=CARTESIAN_POINT('',(-37.9824555320338,13.902633403899,1000.0));
#471=VECTOR('',#595,0.999999999999999);
#472=CARTESIAN_POINT('',(-24.3499999999999,10.8,0.0));
#473=CARTESIAN_POINT('',(-24.35,10.8,500.0));
#474=VECTOR('',#596,1.0);
#475=CARTESIAN_POINT('',(-37.9824555320336,13.902633403899,0.0));
#476=VECTOR('',#597,0.999999999999999);
#477=CARTESIAN_POINT('',(-39.3499999999999,39.0,0.0));
#478=CARTESIAN_POINT('',(-39.3499999999999,41.0,0.0));
#479=VECTOR('',#598,1.0);
#480=CARTESIAN_POINT('',(-39.35,39.0,1000.0));
#481=CARTESIAN_POINT('',(-39.3499999999999,39.0,500.0));
#482=VECTOR('',#599,1.0);
#483=CARTESIAN_POINT('',(-39.35,41.0,1000.0));
#484=VECTOR('',#600,1.0);
#485=CARTESIAN_POINT('',(-58.6499999999999,3.67381906146713E-16,0.0));
#486=CARTESIAN_POINT('',(-60.6499999999999,2.0,0.0));
#487=AXIS2_PLACEMENT_3D('',#601,#602,#603);
#488=CARTESIAN_POINT('',(-58.65,3.67381906146713E-16,1000.0));
#489=CARTESIAN_POINT('',(-58.6499999999999,0.0,500.0));
#490=VECTOR('',#604,1.0);
#491=CARTESIAN_POINT('',(-60.65,2.0,1000.0));
#492=AXIS2_PLACEMENT_3D('',#605,#606,#607);
#493=CARTESIAN_POINT('',(-60.6499999999999,2.0,500.0));
#494=VECTOR('',#608,1.0);
#495=CARTESIAN_POINT('',(-60.65,39.0,1000.0));
#496=CARTESIAN_POINT('',(-60.65,0.0,1000.0));
#497=VECTOR('',#609,1.0);
#498=CARTESIAN_POINT('',(-60.6499999999999,39.0,0.0));
#499=CARTESIAN_POINT('',(-60.6499999999999,39.0,500.0));
#500=VECTOR('',#610,1.0);
#501=CARTESIAN_POINT('',(-60.6499999999999,0.0,0.0));
#502=VECTOR('',#611,1.0);
#503=CARTESIAN_POINT('',(-41.3499999999999,41.0,0.0));
#504=AXIS2_PLACEMENT_3D('',#612,#613,#614);
#505=CARTESIAN_POINT('',(-41.35,41.0,1000.0));
#506=CARTESIAN_POINT('',(-41.3499999999999,41.0,500.0));
#507=VECTOR('',#615,1.0);
#508=AXIS2_PLACEMENT_3D('',#616,#617,#618);
#509=CARTESIAN_POINT('',(-58.6499999999999,41.0,0.0));
#510=AXIS2_PLACEMENT_3D('',#619,#620,#621);
#511=CARTESIAN_POINT('',(-58.65,41.0,1000.0));
#512=AXIS2_PLACEMENT_3D('',#622,#623,#624);
#513=CARTESIAN_POINT('',(-58.6499999999999,41.0,500.0));
#514=VECTOR('',#625,1.0);
#515=CARTESIAN_POINT('',(-60.6499999999999,41.0,0.0));
#516=VECTOR('',#626,1.0);
#517=CARTESIAN_POINT('',(-60.65,41.0,1000.0));
#518=VECTOR('',#627,1.0);
#519=CARTESIAN_POINT('',(39.3500000000001,15.8,0.0));
#520=CARTESIAN_POINT('',(37.9824555320338,13.902633403899,0.0));
#521=AXIS2_PLACEMENT_3D('',#628,#629,#630);
#522=CARTESIAN_POINT('',(37.9824555320337,13.902633403899,1000.0));
#523=CARTESIAN_POINT('',(37.9824555320337,13.902633403899,1000.0));
#524=VECTOR('',#631,1.0);
#525=CARTESIAN_POINT('',(39.35,15.8,1000.0));
#526=AXIS2_PLACEMENT_3D('',#632,#633,#634);
#527=CARTESIAN_POINT('',(39.35,15.8,500.0));
#528=VECTOR('',#635,1.0);
#529=CARTESIAN_POINT('',(24.3500000000001,10.8,0.0));
#530=CARTESIAN_POINT('',(37.9824555320338,13.902633403899,0.0));
#531=VECTOR('',#636,0.999999999999999);
#532=CARTESIAN_POINT('',(24.35,10.8,1000.0));
#533=CARTESIAN_POINT('',(24.3500000000001,10.8,500.0));
#534=VECTOR('',#637,1.0);
#535=CARTESIAN_POINT('',(37.9824555320337,13.902633403899,1000.0));
#536=VECTOR('',#638,1.0);
#537=CARTESIAN_POINT('',(39.35,39.0,1000.0));
#538=CARTESIAN_POINT('',(39.35,41.0,1000.0));
#539=VECTOR('',#639,1.0);
#540=CARTESIAN_POINT('',(39.35,39.0,0.0));
#541=CARTESIAN_POINT('',(39.35,39.0,500.0));
#542=VECTOR('',#640,1.0);
#543=CARTESIAN_POINT('',(39.35,41.0,0.0));
#544=VECTOR('',#641,1.0);
#545=CARTESIAN_POINT('',(58.65,3.67381906146713E-16,1000.0));
#546=CARTESIAN_POINT('',(60.65,2.0,1000.0));
#547=AXIS2_PLACEMENT_3D('',#642,#643,#644);
#548=CARTESIAN_POINT('',(58.65,3.67381906146713E-16,0.0));
#549=CARTESIAN_POINT('',(58.65,0.0,500.0));
#550=VECTOR('',#645,1.0);
#551=CARTESIAN_POINT('',(60.65,2.0,0.0));
#552=AXIS2_PLACEMENT_3D('',#646,#647,#648);
#553=CARTESIAN_POINT('',(60.65,2.0,500.0));
#554=VECTOR('',#649,1.0);
#555=CARTESIAN_POINT('',(60.65,39.0,1000.0));
#556=CARTESIAN_POINT('',(60.65,0.0,1000.0));
#557=VECTOR('',#650,1.0);
#558=CARTESIAN_POINT('',(58.65,41.0,1000.0));
#559=AXIS2_PLACEMENT_3D('',#651,#652,#653);
#560=CARTESIAN_POINT('',(41.35,41.0,1000.0));
#561=CARTESIAN_POINT('',(60.65,41.0,1000.0));
#562=VECTOR('',#654,1.0);
#563=AXIS2_PLACEMENT_3D('',#655,#656,#657);
#564=CARTESIAN_POINT('',(-39.35,10.8,1000.0));
#565=VECTOR('',#658,1.0);
#566=CARTESIAN_POINT('',(0.0,0.0,1000.0));
#567=VECTOR('',#659,1.0);
#568=CARTESIAN_POINT('',(60.65,39.0,0.0));
#569=CARTESIAN_POINT('',(60.65,0.0,0.0));
#570=VECTOR('',#660,1.0);
#571=CARTESIAN_POINT('',(60.65,39.0,500.0));
#572=VECTOR('',#661,1.0);
#573=CARTESIAN_POINT('',(41.35,41.0,0.0));
#574=CARTESIAN_POINT('',(41.35,41.0,500.0));
#575=VECTOR('',#662,1.0);
#576=AXIS2_PLACEMENT_3D('',#663,#664,#665);
#577=CARTESIAN_POINT('',(58.65,41.0,0.0));
#578=AXIS2_PLACEMENT_3D('',#666,#667,#668);
#579=CARTESIAN_POINT('',(58.65,41.0,500.0));
#580=VECTOR('',#669,1.0);
#581=CARTESIAN_POINT('',(0.0,0.0,0.0));
#582=VECTOR('',#670,1.0);
#583=CARTESIAN_POINT('',(39.35,10.8,0.0));
#584=VECTOR('',#671,1.0);
#585=CARTESIAN_POINT('',(60.65,41.0,0.0));
#586=VECTOR('',#672,1.0);
#587=CARTESIAN_POINT('',(-37.3500000000001,15.8,1000.0));
#588=DIRECTION('',(-2.44921270764475E-16,0.0,1.0));
#589=DIRECTION('',(1.0,0.0,2.44921270764475E-16));
#590=DIRECTION('',(-2.44921270764475E-16,0.0,1.0));
#591=CARTESIAN_POINT('',(-37.3499999999999,15.8,0.0));
#592=DIRECTION('',(-2.44921270764475E-16,0.0,1.0));
#593=DIRECTION('',(1.0,0.0,2.44921270764475E-16));
#594=DIRECTION('',(2.44921270764475E-16,0.0,-1.0));
#595=DIRECTION('',(0.975065601592638,-0.221916814574261,2.38814306220797E-16));
#596=DIRECTION('',(-2.44921270764475E-16,-1.65845326977284E-32,1.0));
#597=DIRECTION('',(0.975065601592638,-0.221916814574261,2.38814306220797E-16));
#598=DIRECTION('',(0.0,1.0,0.0));
#599=DIRECTION('',(-1.22460635382238E-16,0.0,1.0));
#600=DIRECTION('',(0.0,-1.0,0.0));
#601=CARTESIAN_POINT('',(-58.6499999999999,2.0,0.0));
#602=DIRECTION('',(1.22460635382238E-16,0.0,-1.0));
#603=DIRECTION('',(1.83690953073357E-16,-1.0,2.24949108273321E-32));
#604=DIRECTION('',(-1.22460635382238E-16,0.0,1.0));
#605=CARTESIAN_POINT('',(-58.65,2.0,1000.0));
#606=DIRECTION('',(-1.22460635382238E-16,0.0,1.0));
#607=DIRECTION('',(1.83690953073357E-16,-1.0,2.24949108273321E-32));
#608=DIRECTION('',(-1.22460635382238E-16,0.0,1.0));
#609=DIRECTION('',(0.0,1.0,0.0));
#610=DIRECTION('',(-1.22460635382238E-16,0.0,1.0));
#611=DIRECTION('',(0.0,-1.0,0.0));
#612=CARTESIAN_POINT('',(-41.3499999999999,39.0,0.0));
#613=DIRECTION('',(1.22460635382238E-16,0.0,-1.0));
#614=DIRECTION('',(-6.12303176911189E-17,1.0,-7.49830360911069E-33));
#615=DIRECTION('',(-1.22460635382238E-16,0.0,1.0));
#616=CARTESIAN_POINT('',(-41.35,39.0,1000.0));
#617=DIRECTION('',(-1.22460635382238E-16,0.0,1.0));
#618=DIRECTION('',(-6.12303176911189E-17,1.0,-7.49830360911069E-33));
#619=CARTESIAN_POINT('',(-58.6499999999999,39.0,0.0));
#620=DIRECTION('',(1.22460635382238E-16,0.0,-1.0));
#621=DIRECTION('',(-1.0,0.0,-1.22460635382238E-16));
#622=CARTESIAN_POINT('',(-58.65,39.0,1000.0));
#623=DIRECTION('',(-1.22460635382238E-16,0.0,1.0));
#624=DIRECTION('',(-1.0,0.0,-1.22460635382238E-16));
#625=DIRECTION('',(-1.22460635382238E-16,0.0,1.0));
#626=DIRECTION('',(-1.0,0.0,-1.22460635382238E-16));
#627=DIRECTION('',(1.0,0.0,1.22460635382238E-16));
#628=CARTESIAN_POINT('',(37.3500000000001,15.8,0.0));
#629=DIRECTION('',(1.22460635382238E-16,0.0,-1.0));
#630=DIRECTION('',(-1.0,0.0,-1.22460635382238E-16));
#631=DIRECTION('',(1.22460635382238E-16,0.0,-1.0));
#632=CARTESIAN_POINT('',(37.35,15.8,1000.0));
#633=DIRECTION('',(1.22460635382238E-16,0.0,-1.0));
#634=DIRECTION('',(-1.0,0.0,-1.22460635382238E-16));
#635=DIRECTION('',(-1.22460635382238E-16,0.0,1.0));
#636=DIRECTION('',(-0.975065601592638,-0.221916814574261,-1.19407153110398E-16));
#637=DIRECTION('',(1.22460635382238E-16,-1.65845326977284E-32,-1.0));
#638=DIRECTION('',(-0.975065601592638,-0.221916814574261,-1.19407153110398E-16));
#639=DIRECTION('',(0.0,1.0,0.0));
#640=DIRECTION('',(-0.0,0.0,-1.0));
#641=DIRECTION('',(0.0,-1.0,0.0));
#642=CARTESIAN_POINT('',(58.65,2.0,1000.0));
#643=DIRECTION('',(0.0,0.0,1.0));
#644=DIRECTION('',(-1.83690953073357E-16,-1.0,0.0));
#645=DIRECTION('',(0.0,-0.0,-1.0));
#646=CARTESIAN_POINT('',(58.65,2.0,0.0));
#647=DIRECTION('',(-0.0,0.0,-1.0));
#648=DIRECTION('',(-1.83690953073357E-16,-1.0,0.0));
#649=DIRECTION('',(0.0,0.0,-1.0));
#650=DIRECTION('',(-0.0,-1.0,-0.0));
#651=CARTESIAN_POINT('',(58.65,39.0,1000.0));
#652=DIRECTION('',(0.0,0.0,1.0));
#653=DIRECTION('',(1.0,0.0,0.0));
#654=DIRECTION('',(1.0,0.0,0.0));
#655=CARTESIAN_POINT('',(41.35,39.0,1000.0));
#656=DIRECTION('',(0.0,-0.0,1.0));
#657=DIRECTION('',(6.12303176911189E-17,1.0,0.0));
#658=DIRECTION('',(1.0,1.35427459166474E-16,1.22460635382238E-16));
#659=DIRECTION('',(-1.0,-0.0,-0.0));
#660=DIRECTION('',(0.0,1.0,0.0));
#661=DIRECTION('',(0.0,0.0,-1.0));
#662=DIRECTION('',(0.0,0.0,-1.0));
#663=CARTESIAN_POINT('',(41.35,39.0,0.0));
#664=DIRECTION('',(0.0,0.0,-1.0));
#665=DIRECTION('',(6.12303176911189E-17,1.0,0.0));
#666=CARTESIAN_POINT('',(58.65,39.0,0.0));
#667=DIRECTION('',(0.0,0.0,-1.0));
#668=DIRECTION('',(1.0,0.0,0.0));
#669=DIRECTION('',(0.0,0.0,-1.0));
#670=DIRECTION('',(1.0,0.0,0.0));
#671=DIRECTION('',(-1.0,1.35427459166474E-16,0.0));
#672=DIRECTION('',(-1.0,0.0,0.0));
ENDSEC;
END-ISO-10303-21;
