ISO-10303-21;
HEADER;
FILE_DESCRIPTION (( 'STEP AP214' ),
    '1' );
FILE_NAME ('Standard 1 INOX-L 1000mm.STEP',
    '2022-04-08T13:49:13',
    ( '' ),
    ( '' ),
    'SwSTEP 2.0',
    'SolidWorks 2020',
    '' );
FILE_SCHEMA (( 'AUTOMOTIVE_DESIGN' ));
ENDSEC;

DATA;
#1 = VECTOR ( 'NONE', #189, 1000.000000000000000 ) ;
#2 = VERTEX_POINT ( 'NONE', #100 ) ;
#3 = ADVANCED_FACE ( 'NONE', ( #264 ), #315, .F. ) ;
#4 = LINE ( 'NONE', #272, #1 ) ;
#5 = ORIENTED_EDGE ( 'NONE', *, *, #135, .T. ) ;
#6 = EDGE_CURVE ( 'NONE', #284, #237, #156, .T. ) ;
#7 = PLANE ( 'NONE',  #297 ) ;
#8 = EDGE_LOOP ( 'NONE', ( #99, #40, #241, #214 ) ) ;
#9 = DIRECTION ( 'NONE',  ( 1.000000000000000000, 0.000000000000000000, -0.000000000000000000 ) ) ;
#10 = EDGE_LOOP ( 'NONE', ( #249, #75, #114, #324 ) ) ;
#11 = VECTOR ( 'NONE', #311, 1000.000000000000000 ) ;
#12 = CARTESIAN_POINT ( 'NONE',  ( 46.00000000000000000, 19.00000000000001421, 500.0000000000000000 ) ) ;
#13 = EDGE_CURVE ( 'NONE', #274, #134, #243, .T. ) ;
#14 = SURFACE_STYLE_USAGE ( .BOTH. , #150 ) ;
#15 = DIRECTION ( 'NONE',  ( 1.000000000000000000, -3.469446951953611231E-16, 0.000000000000000000 ) ) ;
#16 = CARTESIAN_POINT ( 'NONE',  ( 36.00000000000001421, 19.00000000000000711, 500.0000000000000000 ) ) ;
#17 = LINE ( 'NONE', #301, #255 ) ;
#18 = CARTESIAN_POINT ( 'NONE',  ( 36.00000000000001421, -10.99999999999999289, 500.0000000000000000 ) ) ;
#19 = EDGE_LOOP ( 'NONE', ( #54, #266, #208, #171 ) ) ;
#20 = AXIS2_PLACEMENT_3D ( 'NONE', #233, #302, #41 ) ;
#21 = CARTESIAN_POINT ( 'NONE',  ( 36.00000000000001421, 19.00000000000000711, 500.0000000000000000 ) ) ;
#22 = CARTESIAN_POINT ( 'NONE',  ( -45.00000000000000000, -19.00000000000000000, -500.0000000000000000 ) ) ;
#23 = UNCERTAINTY_MEASURE_WITH_UNIT (LENGTH_MEASURE( 1.000000000000000082E-05 ), #124, 'distance_accuracy_value', 'NONE');
#24 = LINE ( 'NONE', #126, #213 ) ;
#25 = EDGE_CURVE ( 'NONE', #318, #291, #294, .T. ) ;
#26 = ORIENTED_EDGE ( 'NONE', *, *, #28, .T. ) ;
#27 = VECTOR ( 'NONE', #61, 1000.000000000000000 ) ;
#28 = EDGE_CURVE ( 'NONE', #284, #59, #32, .T. ) ;
#29 = EDGE_LOOP ( 'NONE', ( #155, #185, #92, #268 ) ) ;
#30 = CARTESIAN_POINT ( 'NONE',  ( 46.00000000000000000, 19.00000000000001421, 500.0000000000000000 ) ) ;
#31 = ORIENTED_EDGE ( 'NONE', *, *, #152, .T. ) ;
#32 = LINE ( 'NONE', #211, #197 ) ;
#33 = ORIENTED_EDGE ( 'NONE', *, *, #141, .F. ) ;
#34 = EDGE_CURVE ( 'NONE', #154, #181, #160, .T. ) ;
#35 =( NAMED_UNIT ( * ) PLANE_ANGLE_UNIT ( ) SI_UNIT ( $, .RADIAN. ) );
#36 = CARTESIAN_POINT ( 'NONE',  ( 36.00000000000001421, -10.99999999999999289, -500.0000000000000000 ) ) ;
#37 = DIRECTION ( 'NONE',  ( 0.000000000000000000, 0.000000000000000000, -1.000000000000000000 ) ) ;
#38 = DIRECTION ( 'NONE',  ( -1.000000000000000000, 0.000000000000000000, -0.000000000000000000 ) ) ;
#39 = DIRECTION ( 'NONE',  ( -2.312964634635742957E-16, 1.000000000000000000, 0.000000000000000000 ) ) ;
#40 = ORIENTED_EDGE ( 'NONE', *, *, #173, .F. ) ;
#41 = DIRECTION ( 'NONE',  ( -1.000000000000000000, -1.525031627232357891E-16, 0.000000000000000000 ) ) ;
#42 = FACE_OUTER_BOUND ( 'NONE', #312, .T. ) ;
#43 = CARTESIAN_POINT ( 'NONE',  ( 46.00000000000000711, -18.99999999999998579, -500.0000000000000000 ) ) ;
#44 = CARTESIAN_POINT ( 'NONE',  ( 46.00000000000000000, 19.00000000000001421, 500.0000000000000000 ) ) ;
#45 = DIRECTION ( 'NONE',  ( 1.465963500825470926E-16, -1.000000000000000000, 0.000000000000000000 ) ) ;
#46 = VECTOR ( 'NONE', #165, 1000.000000000000000 ) ;
#47 = LINE ( 'NONE', #235, #163 ) ;
#48 = CARTESIAN_POINT ( 'NONE',  ( 36.00000000000001421, -10.99999999999999289, 500.0000000000000000 ) ) ;
#49 = CARTESIAN_POINT ( 'NONE',  ( 36.00000000000001421, -10.99999999999999289, 500.0000000000000000 ) ) ;
#50 = DIRECTION ( 'NONE',  ( -0.000000000000000000, -0.000000000000000000, -1.000000000000000000 ) ) ;
#51 =( GEOMETRIC_REPRESENTATION_CONTEXT ( 3 ) GLOBAL_UNCERTAINTY_ASSIGNED_CONTEXT ( ( #130 ) ) GLOBAL_UNIT_ASSIGNED_CONTEXT ( ( #105, #35, #323 ) ) REPRESENTATION_CONTEXT ( 'NONE', 'WORKASPACE' ) );
#52 = VECTOR ( 'NONE', #175, 1000.000000000000000 ) ;
#53 = DIRECTION ( 'NONE',  ( -1.000000000000000000, 3.469446951953611231E-16, 0.000000000000000000 ) ) ;
#54 = ORIENTED_EDGE ( 'NONE', *, *, #55, .T. ) ;
#55 = EDGE_CURVE ( 'NONE', #162, #318, #299, .T. ) ;
#56 = CARTESIAN_POINT ( 'NONE',  ( 46.00000000000000711, -18.99999999999998579, -500.0000000000000000 ) ) ;
#57 = VECTOR ( 'NONE', #113, 1000.000000000000000 ) ;
#58 = CARTESIAN_POINT ( 'NONE',  ( -45.00000000000000000, 19.00000000000000000, 500.0000000000000000 ) ) ;
#59 = VERTEX_POINT ( 'NONE', #58 ) ;
#60 = DIRECTION ( 'NONE',  ( 0.000000000000000000, -1.000000000000000000, 0.000000000000000000 ) ) ;
#61 = DIRECTION ( 'NONE',  ( 1.000000000000000000, 1.525031627232357891E-16, -0.000000000000000000 ) ) ;
#62 = DIRECTION ( 'NONE',  ( -1.000000000000000000, -1.465963500825470926E-16, 0.000000000000000000 ) ) ;
#63 = ADVANCED_FACE ( 'NONE', ( #217 ), #250, .F. ) ;
#64 = CARTESIAN_POINT ( 'NONE',  ( 36.00000000000001421, -10.99999999999999289, 500.0000000000000000 ) ) ;
#65 = CARTESIAN_POINT ( 'NONE',  ( -34.99999999999999289, 18.99999999999999645, -500.0000000000000000 ) ) ;
#66 = AXIS2_PLACEMENT_3D ( 'NONE', #30, #290, #190 ) ;
#67 = ADVANCED_FACE ( 'NONE', ( #83 ), #193, .F. ) ;
#68 = CARTESIAN_POINT ( 'NONE',  ( 46.00000000000000711, -18.99999999999998579, 500.0000000000000000 ) ) ;
#69 = FACE_OUTER_BOUND ( 'NONE', #10, .T. ) ;
#70 = ADVANCED_FACE ( 'NONE', ( #42 ), #117, .T. ) ;
#71 = ORIENTED_EDGE ( 'NONE', *, *, #179, .F. ) ;
#72 = MECHANICAL_DESIGN_GEOMETRIC_PRESENTATION_REPRESENTATION (  '', ( #182 ), #314 ) ;
#73 = PRODUCT_DEFINITION ( 'UNKNOWN', '', #286, #178 ) ;
#74 = EDGE_CURVE ( 'NONE', #134, #148, #96, .T. ) ;
#75 = ORIENTED_EDGE ( 'NONE', *, *, #152, .F. ) ;
#76 = EDGE_LOOP ( 'NONE', ( #322, #133, #71, #187 ) ) ;
#77 = CARTESIAN_POINT ( 'NONE',  ( -45.00000000000000000, 19.00000000000000000, 500.0000000000000000 ) ) ;
#78 = AXIS2_PLACEMENT_3D ( 'NONE', #172, #279, #327 ) ;
#79 = COLOUR_RGB ( '',0.7764705882352941346, 0.7568627450980391913, 0.7372549019607843590 ) ;
#80 = ORIENTED_EDGE ( 'NONE', *, *, #74, .T. ) ;
#81 = EDGE_CURVE ( 'NONE', #131, #295, #151, .T. ) ;
#82 = EDGE_CURVE ( 'NONE', #2, #154, #168, .T. ) ;
#83 = FACE_OUTER_BOUND ( 'NONE', #316, .T. ) ;
#84 = APPLICATION_PROTOCOL_DEFINITION ( 'draft international standard', 'automotive_design', 1998, #215 ) ;
#85 = VECTOR ( 'NONE', #50, 1000.000000000000000 ) ;
#86 = PRESENTATION_LAYER_ASSIGNMENT (  '', '', ( #265 ) ) ;
#87 = DIRECTION ( 'NONE',  ( -1.000000000000000000, -1.826024711554533913E-16, 0.000000000000000000 ) ) ;
#88 = VECTOR ( 'NONE', #39, 1000.000000000000000 ) ;
#89 = LINE ( 'NONE', #122, #88 ) ;
#90 = DIRECTION ( 'NONE',  ( 0.000000000000000000, 0.000000000000000000, -1.000000000000000000 ) ) ;
#91 = EDGE_CURVE ( 'NONE', #103, #274, #196, .T. ) ;
#92 = ORIENTED_EDGE ( 'NONE', *, *, #28, .F. ) ;
#93 = PLANE ( 'NONE',  #303 ) ;
#94 = EDGE_CURVE ( 'NONE', #131, #318, #170, .T. ) ;
#95 = LINE ( 'NONE', #254, #275 ) ;
#96 = LINE ( 'NONE', #44, #174 ) ;
#97 = ADVANCED_FACE ( 'NONE', ( #329 ), #93, .F. ) ;
#98 = CARTESIAN_POINT ( 'NONE',  ( -34.99999999999999289, 18.99999999999999645, 500.0000000000000000 ) ) ;
#99 = ORIENTED_EDGE ( 'NONE', *, *, #82, .T. ) ;
#100 = CARTESIAN_POINT ( 'NONE',  ( -45.00000000000000000, 19.00000000000000000, -500.0000000000000000 ) ) ;
#101 = COLOUR_RGB ( '',0.7764705882352941346, 0.7568627450980391913, 0.7372549019607843590 ) ;
#102 = ORIENTED_EDGE ( 'NONE', *, *, #74, .F. ) ;
#103 = VERTEX_POINT ( 'NONE', #203 ) ;
#104 = DIRECTION ( 'NONE',  ( -1.826024711554533913E-16, 1.000000000000000000, -0.000000000000000000 ) ) ;
#105 =( LENGTH_UNIT ( ) NAMED_UNIT ( * ) SI_UNIT ( .MILLI., .METRE. ) );
#106 = VERTEX_POINT ( 'NONE', #16 ) ;
#107 = AXIS2_PLACEMENT_3D ( 'NONE', #12, #87, #143 ) ;
#108 = CARTESIAN_POINT ( 'NONE',  ( 36.00000000000001421, -10.99999999999999289, -500.0000000000000000 ) ) ;
#109 = SURFACE_STYLE_USAGE ( .BOTH. , #246 ) ;
#110 = CARTESIAN_POINT ( 'NONE',  ( 0.000000000000000000, 0.000000000000000000, 0.000000000000000000 ) ) ;
#111 = PRODUCT_RELATED_PRODUCT_CATEGORY ( 'part', '', ( #140 ) ) ;
#112 = VECTOR ( 'NONE', #104, 1000.000000000000000 ) ;
#113 = DIRECTION ( 'NONE',  ( -1.000000000000000000, -6.938893903907238238E-16, 0.000000000000000000 ) ) ;
#114 = ORIENTED_EDGE ( 'NONE', *, *, #91, .F. ) ;
#115 = ADVANCED_FACE ( 'NONE', ( #334 ), #306, .F. ) ;
#116 = CARTESIAN_POINT ( 'NONE',  ( -34.99999999999998579, -11.00000000000000355, -500.0000000000000000 ) ) ;
#117 = PLANE ( 'NONE',  #78 ) ;
#118 = CARTESIAN_POINT ( 'NONE',  ( 46.00000000000000000, 19.00000000000001421, -500.0000000000000000 ) ) ;
#119 = DIRECTION ( 'NONE',  ( 0.000000000000000000, -1.000000000000000000, 0.000000000000000000 ) ) ;
#120 = ORIENTED_EDGE ( 'NONE', *, *, #13, .F. ) ;
#121 = EDGE_CURVE ( 'NONE', #106, #162, #149, .T. ) ;
#122 = CARTESIAN_POINT ( 'NONE',  ( -34.99999999999998579, -11.00000000000000355, 500.0000000000000000 ) ) ;
#123 = DIRECTION ( 'NONE',  ( -0.000000000000000000, -0.000000000000000000, -1.000000000000000000 ) ) ;
#124 =( LENGTH_UNIT ( ) NAMED_UNIT ( * ) SI_UNIT ( .MILLI., .METRE. ) );
#125 = CARTESIAN_POINT ( 'NONE',  ( 36.00000000000001421, 19.00000000000000711, -500.0000000000000000 ) ) ;
#126 = CARTESIAN_POINT ( 'NONE',  ( 46.00000000000000711, -18.99999999999998579, 500.0000000000000000 ) ) ;
#127 = VECTOR ( 'NONE', #200, 1000.000000000000000 ) ;
#128 =( GEOMETRIC_REPRESENTATION_CONTEXT ( 3 ) GLOBAL_UNCERTAINTY_ASSIGNED_CONTEXT ( ( #183 ) ) GLOBAL_UNIT_ASSIGNED_CONTEXT ( ( #191, #164, #317 ) ) REPRESENTATION_CONTEXT ( 'NONE', 'WORKASPACE' ) );
#129 = ORIENTED_EDGE ( 'NONE', *, *, #194, .T. ) ;
#130 = UNCERTAINTY_MEASURE_WITH_UNIT (LENGTH_MEASURE( 1.000000000000000082E-05 ), #105, 'distance_accuracy_value', 'NONE');
#131 = VERTEX_POINT ( 'NONE', #228 ) ;
#132 = ORIENTED_EDGE ( 'NONE', *, *, #298, .F. ) ;
#133 = ORIENTED_EDGE ( 'NONE', *, *, #6, .F. ) ;
#134 = VERTEX_POINT ( 'NONE', #333 ) ;
#135 = EDGE_CURVE ( 'NONE', #181, #148, #95, .T. ) ;
#136 = ORIENTED_EDGE ( 'NONE', *, *, #25, .T. ) ;
#137 = CARTESIAN_POINT ( 'NONE',  ( 36.00000000000001421, -10.99999999999999289, -500.0000000000000000 ) ) ;
#138 = ORIENTED_EDGE ( 'NONE', *, *, #81, .F. ) ;
#139 = VECTOR ( 'NONE', #62, 1000.000000000000000 ) ;
#140 = PRODUCT ( 'Standard 1 INOX-L 1000mm', 'Standard 1 INOX-L 1000mm', '', ( #212 ) ) ;
#141 = EDGE_CURVE ( 'NONE', #237, #2, #259, .T. ) ;
#142 = EDGE_CURVE ( 'NONE', #106, #131, #282, .T. ) ;
#143 = DIRECTION ( 'NONE',  ( 1.826024711554533913E-16, -1.000000000000000000, 0.000000000000000000 ) ) ;
#144 = CARTESIAN_POINT ( 'NONE',  ( -34.99999999999998579, -11.00000000000000355, 500.0000000000000000 ) ) ;
#145 = LINE ( 'NONE', #252, #244 ) ;
#146 = LINE ( 'NONE', #201, #157 ) ;
#147 = DIRECTION ( 'NONE',  ( 1.000000000000000000, 0.000000000000000000, 0.000000000000000000 ) ) ;
#148 = VERTEX_POINT ( 'NONE', #283 ) ;
#149 = LINE ( 'NONE', #21, #192 ) ;
#150 = SURFACE_SIDE_STYLE ('',( #222 ) ) ;
#151 = LINE ( 'NONE', #64, #139 ) ;
#152 = EDGE_CURVE ( 'NONE', #274, #181, #24, .T. ) ;
#153 = CARTESIAN_POINT ( 'NONE',  ( 36.00000000000001421, -10.99999999999999289, 500.0000000000000000 ) ) ;
#154 = VERTEX_POINT ( 'NONE', #22 ) ;
#155 = ORIENTED_EDGE ( 'NONE', *, *, #141, .T. ) ;
#156 = LINE ( 'NONE', #236, #85 ) ;
#157 = VECTOR ( 'NONE', #60, 1000.000000000000000 ) ;
#158 = AXIS2_PLACEMENT_3D ( 'NONE', #110, #242, #218 ) ;
#159 = SURFACE_STYLE_FILL_AREA ( #270 ) ;
#160 = LINE ( 'NONE', #56, #232 ) ;
#161 = APPLICATION_PROTOCOL_DEFINITION ( 'draft international standard', 'automotive_design', 1998, #198 ) ;
#162 = VERTEX_POINT ( 'NONE', #125 ) ;
#163 = VECTOR ( 'NONE', #310, 1000.000000000000000 ) ;
#164 =( NAMED_UNIT ( * ) PLANE_ANGLE_UNIT ( ) SI_UNIT ( $, .RADIAN. ) );
#165 = DIRECTION ( 'NONE',  ( -0.000000000000000000, -1.000000000000000000, -0.000000000000000000 ) ) ;
#166 = ADVANCED_FACE ( 'NONE', ( #69 ), #176, .F. ) ;
#167 = PLANE ( 'NONE',  #328 ) ;
#168 = LINE ( 'NONE', #230, #280 ) ;
#169 = EDGE_CURVE ( 'NONE', #59, #2, #145, .T. ) ;
#170 = LINE ( 'NONE', #18, #127 ) ;
#171 = ORIENTED_EDGE ( 'NONE', *, *, #121, .T. ) ;
#172 = CARTESIAN_POINT ( 'NONE',  ( 0.000000000000000000, 0.000000000000000000, -500.0000000000000000 ) ) ;
#173 = EDGE_CURVE ( 'NONE', #103, #154, #17, .T. ) ;
#174 = VECTOR ( 'NONE', #123, 1000.000000000000000 ) ;
#175 = DIRECTION ( 'NONE',  ( -1.000000000000000000, 3.469446951953611231E-16, 0.000000000000000000 ) ) ;
#176 = PLANE ( 'NONE',  #20 ) ;
#177 = ORIENTED_EDGE ( 'NONE', *, *, #142, .T. ) ;
#178 = PRODUCT_DEFINITION_CONTEXT ( 'detailed design', #215, 'design' ) ;
#179 = EDGE_CURVE ( 'NONE', #295, #284, #89, .T. ) ;
#180 = EDGE_LOOP ( 'NONE', ( #129, #226, #260, #80 ) ) ;
#181 = VERTEX_POINT ( 'NONE', #43 ) ;
#182 = STYLED_ITEM ( 'NONE', ( #257 ), #239 ) ;
#183 = UNCERTAINTY_MEASURE_WITH_UNIT (LENGTH_MEASURE( 1.000000000000000082E-05 ), #191, 'distance_accuracy_value', 'NONE');
#184 = ORIENTED_EDGE ( 'NONE', *, *, #194, .F. ) ;
#185 = ORIENTED_EDGE ( 'NONE', *, *, #169, .F. ) ;
#186 = CARTESIAN_POINT ( 'NONE',  ( -34.99999999999998579, -11.00000000000000355, 500.0000000000000000 ) ) ;
#187 = ORIENTED_EDGE ( 'NONE', *, *, #298, .T. ) ;
#188 = VECTOR ( 'NONE', #261, 1000.000000000000000 ) ;
#189 = DIRECTION ( 'NONE',  ( -0.000000000000000000, -0.000000000000000000, -1.000000000000000000 ) ) ;
#190 = DIRECTION ( 'NONE',  ( 1.000000000000000000, 6.938893903907238238E-16, 0.000000000000000000 ) ) ;
#191 =( LENGTH_UNIT ( ) NAMED_UNIT ( * ) SI_UNIT ( .MILLI., .METRE. ) );
#192 = VECTOR ( 'NONE', #256, 1000.000000000000000 ) ;
#193 = PLANE ( 'NONE',  #107 ) ;
#194 = EDGE_CURVE ( 'NONE', #148, #162, #199, .T. ) ;
#195 = FACE_OUTER_BOUND ( 'NONE', #29, .T. ) ;
#196 = LINE ( 'NONE', #225, #27 ) ;
#197 = VECTOR ( 'NONE', #53, 1000.000000000000000 ) ;
#198 = APPLICATION_CONTEXT ( 'automotive_design' ) ;
#199 = LINE ( 'NONE', #118, #57 ) ;
#200 = DIRECTION ( 'NONE',  ( -0.000000000000000000, -0.000000000000000000, -1.000000000000000000 ) ) ;
#201 = CARTESIAN_POINT ( 'NONE',  ( -45.00000000000000000, 19.00000000000000000, 500.0000000000000000 ) ) ;
#202 = PRESENTATION_LAYER_ASSIGNMENT (  '', '', ( #182 ) ) ;
#203 = CARTESIAN_POINT ( 'NONE',  ( -45.00000000000000000, -19.00000000000000000, 500.0000000000000000 ) ) ;
#204 = CARTESIAN_POINT ( 'NONE',  ( -34.99999999999998579, -11.00000000000000355, -500.0000000000000000 ) ) ;
#205 = ADVANCED_FACE ( 'NONE', ( #195 ), #227, .F. ) ;
#206 = ORIENTED_EDGE ( 'NONE', *, *, #207, .T. ) ;
#207 = EDGE_CURVE ( 'NONE', #59, #103, #146, .T. ) ;
#208 = ORIENTED_EDGE ( 'NONE', *, *, #142, .F. ) ;
#209 = EDGE_LOOP ( 'NONE', ( #136, #132, #138, #269 ) ) ;
#210 = PRODUCT_DEFINITION_SHAPE ( 'NONE', 'NONE',  #73 ) ;
#211 = CARTESIAN_POINT ( 'NONE',  ( -34.99999999999999289, 18.99999999999999645, 500.0000000000000000 ) ) ;
#212 = PRODUCT_CONTEXT ( 'NONE', #198, 'mechanical' ) ;
#213 = VECTOR ( 'NONE', #258, 1000.000000000000000 ) ;
#214 = ORIENTED_EDGE ( 'NONE', *, *, #169, .T. ) ;
#215 = APPLICATION_CONTEXT ( 'automotive_design' ) ;
#216 = PRESENTATION_STYLE_ASSIGNMENT (( #109 ) ) ;
#217 = FACE_OUTER_BOUND ( 'NONE', #262, .T. ) ;
#218 = DIRECTION ( 'NONE',  ( 1.000000000000000000, 0.000000000000000000, 0.000000000000000000 ) ) ;
#219 = ORIENTED_EDGE ( 'NONE', *, *, #25, .F. ) ;
#220 = ADVANCED_FACE ( 'NONE', ( #305 ), #167, .F. ) ;
#221 = CARTESIAN_POINT ( 'NONE',  ( -34.99999999999999289, 18.99999999999999645, 500.0000000000000000 ) ) ;
#222 = SURFACE_STYLE_FILL_AREA ( #325 ) ;
#223 = AXIS2_PLACEMENT_3D ( 'NONE', #273, #37, #38 ) ;
#224 = DIRECTION ( 'NONE',  ( -0.000000000000000000, -0.000000000000000000, -1.000000000000000000 ) ) ;
#225 = CARTESIAN_POINT ( 'NONE',  ( 46.00000000000000711, -18.99999999999998579, 500.0000000000000000 ) ) ;
#226 = ORIENTED_EDGE ( 'NONE', *, *, #121, .F. ) ;
#227 = PLANE ( 'NONE',  #285 ) ;
#228 = CARTESIAN_POINT ( 'NONE',  ( 36.00000000000001421, -10.99999999999999289, 500.0000000000000000 ) ) ;
#229 = DIRECTION ( 'NONE',  ( -3.469446951953611231E-16, -1.000000000000000000, 0.000000000000000000 ) ) ;
#230 = CARTESIAN_POINT ( 'NONE',  ( -45.00000000000000000, 19.00000000000000000, -500.0000000000000000 ) ) ;
#231 = EDGE_CURVE ( 'NONE', #291, #237, #332, .T. ) ;
#232 = VECTOR ( 'NONE', #296, 1000.000000000000000 ) ;
#233 = CARTESIAN_POINT ( 'NONE',  ( 46.00000000000000711, -18.99999999999998579, 500.0000000000000000 ) ) ;
#234 = ORIENTED_EDGE ( 'NONE', *, *, #91, .T. ) ;
#235 = CARTESIAN_POINT ( 'NONE',  ( 46.00000000000000000, 19.00000000000001421, 500.0000000000000000 ) ) ;
#236 = CARTESIAN_POINT ( 'NONE',  ( -34.99999999999999289, 18.99999999999999645, 500.0000000000000000 ) ) ;
#237 = VERTEX_POINT ( 'NONE', #248 ) ;
#238 = ORIENTED_EDGE ( 'NONE', *, *, #179, .T. ) ;
#239 = MANIFOLD_SOLID_BREP ( 'Boss-Extrude1', #247 ) ;
#240 = SHAPE_DEFINITION_REPRESENTATION ( #210, #308 ) ;
#241 = ORIENTED_EDGE ( 'NONE', *, *, #207, .F. ) ;
#242 = DIRECTION ( 'NONE',  ( 0.000000000000000000, 0.000000000000000000, 1.000000000000000000 ) ) ;
#243 = LINE ( 'NONE', #292, #112 ) ;
#244 = VECTOR ( 'NONE', #224, 1000.000000000000000 ) ;
#245 = MECHANICAL_DESIGN_GEOMETRIC_PRESENTATION_REPRESENTATION (  '', ( #265 ), #128 ) ;
#246 = SURFACE_SIDE_STYLE ('',( #159 ) ) ;
#247 = CLOSED_SHELL ( 'NONE', ( #319, #166, #67, #3, #97, #115, #220, #205, #63, #70 ) ) ;
#248 = CARTESIAN_POINT ( 'NONE',  ( -34.99999999999999289, 18.99999999999999645, -500.0000000000000000 ) ) ;
#249 = ORIENTED_EDGE ( 'NONE', *, *, #34, .T. ) ;
#250 = PLANE ( 'NONE',  #223 ) ;
#251 = DIRECTION ( 'NONE',  ( -1.000000000000000000, -2.312964634635742957E-16, 0.000000000000000000 ) ) ;
#252 = CARTESIAN_POINT ( 'NONE',  ( -45.00000000000000000, 19.00000000000000000, 500.0000000000000000 ) ) ;
#253 = DIRECTION ( 'NONE',  ( -2.312964634635742957E-16, 1.000000000000000000, 0.000000000000000000 ) ) ;
#254 = CARTESIAN_POINT ( 'NONE',  ( 46.00000000000000000, 19.00000000000001421, -500.0000000000000000 ) ) ;
#255 = VECTOR ( 'NONE', #278, 1000.000000000000000 ) ;
#256 = DIRECTION ( 'NONE',  ( -0.000000000000000000, -0.000000000000000000, -1.000000000000000000 ) ) ;
#257 = PRESENTATION_STYLE_ASSIGNMENT (( #14 ) ) ;
#258 = DIRECTION ( 'NONE',  ( -0.000000000000000000, -0.000000000000000000, -1.000000000000000000 ) ) ;
#259 = LINE ( 'NONE', #65, #52 ) ;
#260 = ORIENTED_EDGE ( 'NONE', *, *, #263, .F. ) ;
#261 = DIRECTION ( 'NONE',  ( -1.000000000000000000, -1.465963500825470926E-16, 0.000000000000000000 ) ) ;
#262 = EDGE_LOOP ( 'NONE', ( #206, #234, #304, #288, #177, #330, #238, #26 ) ) ;
#263 = EDGE_CURVE ( 'NONE', #134, #106, #47, .T. ) ;
#264 = FACE_OUTER_BOUND ( 'NONE', #180, .T. ) ;
#265 = STYLED_ITEM ( 'NONE', ( #216 ), #308 ) ;
#266 = ORIENTED_EDGE ( 'NONE', *, *, #94, .F. ) ;
#267 = FACE_OUTER_BOUND ( 'NONE', #8, .T. ) ;
#268 = ORIENTED_EDGE ( 'NONE', *, *, #6, .T. ) ;
#269 = ORIENTED_EDGE ( 'NONE', *, *, #94, .T. ) ;
#270 = FILL_AREA_STYLE ('',( #293 ) ) ;
#271 = DIRECTION ( 'NONE',  ( -0.000000000000000000, 0.000000000000000000, -1.000000000000000000 ) ) ;
#272 = CARTESIAN_POINT ( 'NONE',  ( -34.99999999999998579, -11.00000000000000355, 500.0000000000000000 ) ) ;
#273 = CARTESIAN_POINT ( 'NONE',  ( 0.000000000000000000, 0.000000000000000000, 500.0000000000000000 ) ) ;
#274 = VERTEX_POINT ( 'NONE', #68 ) ;
#275 = VECTOR ( 'NONE', #307, 1000.000000000000000 ) ;
#276 =( NAMED_UNIT ( * ) PLANE_ANGLE_UNIT ( ) SI_UNIT ( $, .RADIAN. ) );
#277 = ORIENTED_EDGE ( 'NONE', *, *, #82, .F. ) ;
#278 = DIRECTION ( 'NONE',  ( -0.000000000000000000, -0.000000000000000000, -1.000000000000000000 ) ) ;
#279 = DIRECTION ( 'NONE',  ( 0.000000000000000000, 0.000000000000000000, -1.000000000000000000 ) ) ;
#280 = VECTOR ( 'NONE', #119, 1000.000000000000000 ) ;
#281 = DIRECTION ( 'NONE',  ( 2.312964634635742957E-16, -1.000000000000000000, 0.000000000000000000 ) ) ;
#282 = LINE ( 'NONE', #48, #11 ) ;
#283 = CARTESIAN_POINT ( 'NONE',  ( 46.00000000000000000, 19.00000000000001421, -500.0000000000000000 ) ) ;
#284 = VERTEX_POINT ( 'NONE', #98 ) ;
#285 = AXIS2_PLACEMENT_3D ( 'NONE', #221, #229, #15 ) ;
#286 = PRODUCT_DEFINITION_FORMATION_WITH_SPECIFIED_SOURCE ( 'ANY', '', #140, .NOT_KNOWN. ) ;
#287 = ORIENTED_EDGE ( 'NONE', *, *, #34, .F. ) ;
#288 = ORIENTED_EDGE ( 'NONE', *, *, #263, .T. ) ;
#289 =( NAMED_UNIT ( * ) SI_UNIT ( $, .STERADIAN. ) SOLID_ANGLE_UNIT ( ) );
#290 = DIRECTION ( 'NONE',  ( 6.938893903907238238E-16, -1.000000000000000000, 0.000000000000000000 ) ) ;
#291 = VERTEX_POINT ( 'NONE', #204 ) ;
#292 = CARTESIAN_POINT ( 'NONE',  ( 46.00000000000000000, 19.00000000000001421, 500.0000000000000000 ) ) ;
#293 = FILL_AREA_STYLE_COLOUR ( '', #79 ) ;
#294 = LINE ( 'NONE', #108, #188 ) ;
#295 = VERTEX_POINT ( 'NONE', #186 ) ;
#296 = DIRECTION ( 'NONE',  ( 1.000000000000000000, 1.525031627232357891E-16, -0.000000000000000000 ) ) ;
#297 = AXIS2_PLACEMENT_3D ( 'NONE', #77, #9, #271 ) ;
#298 = EDGE_CURVE ( 'NONE', #295, #291, #4, .T. ) ;
#299 = LINE ( 'NONE', #36, #46 ) ;
#300 = ORIENTED_EDGE ( 'NONE', *, *, #55, .F. ) ;
#301 = CARTESIAN_POINT ( 'NONE',  ( -45.00000000000000000, -19.00000000000000000, 500.0000000000000000 ) ) ;
#302 = DIRECTION ( 'NONE',  ( -1.525031627232357891E-16, 1.000000000000000000, 0.000000000000000000 ) ) ;
#303 = AXIS2_PLACEMENT_3D ( 'NONE', #49, #147, #90 ) ;
#304 = ORIENTED_EDGE ( 'NONE', *, *, #13, .T. ) ;
#305 = FACE_OUTER_BOUND ( 'NONE', #76, .T. ) ;
#306 = PLANE ( 'NONE',  #309 ) ;
#307 = DIRECTION ( 'NONE',  ( -1.826024711554533913E-16, 1.000000000000000000, -0.000000000000000000 ) ) ;
#308 = ADVANCED_BREP_SHAPE_REPRESENTATION ( 'Standard 1 INOX-L 1000mm', ( #239, #158 ), #51 ) ;
#309 = AXIS2_PLACEMENT_3D ( 'NONE', #153, #45, #331 ) ;
#310 = DIRECTION ( 'NONE',  ( -1.000000000000000000, -6.938893903907238238E-16, 0.000000000000000000 ) ) ;
#311 = DIRECTION ( 'NONE',  ( -0.000000000000000000, -1.000000000000000000, -0.000000000000000000 ) ) ;
#312 = EDGE_LOOP ( 'NONE', ( #277, #33, #320, #219, #300, #184, #313, #287 ) ) ;
#313 = ORIENTED_EDGE ( 'NONE', *, *, #135, .F. ) ;
#314 =( GEOMETRIC_REPRESENTATION_CONTEXT ( 3 ) GLOBAL_UNCERTAINTY_ASSIGNED_CONTEXT ( ( #23 ) ) GLOBAL_UNIT_ASSIGNED_CONTEXT ( ( #124, #276, #289 ) ) REPRESENTATION_CONTEXT ( 'NONE', 'WORKASPACE' ) );
#315 = PLANE ( 'NONE',  #66 ) ;
#316 = EDGE_LOOP ( 'NONE', ( #5, #102, #120, #31 ) ) ;
#317 =( NAMED_UNIT ( * ) SI_UNIT ( $, .STERADIAN. ) SOLID_ANGLE_UNIT ( ) );
#318 = VERTEX_POINT ( 'NONE', #137 ) ;
#319 = ADVANCED_FACE ( 'NONE', ( #267 ), #7, .F. ) ;
#320 = ORIENTED_EDGE ( 'NONE', *, *, #231, .F. ) ;
#321 = VECTOR ( 'NONE', #253, 1000.000000000000000 ) ;
#322 = ORIENTED_EDGE ( 'NONE', *, *, #231, .T. ) ;
#323 =( NAMED_UNIT ( * ) SI_UNIT ( $, .STERADIAN. ) SOLID_ANGLE_UNIT ( ) );
#324 = ORIENTED_EDGE ( 'NONE', *, *, #173, .T. ) ;
#325 = FILL_AREA_STYLE ('',( #326 ) ) ;
#326 = FILL_AREA_STYLE_COLOUR ( '', #101 ) ;
#327 = DIRECTION ( 'NONE',  ( -1.000000000000000000, 0.000000000000000000, -0.000000000000000000 ) ) ;
#328 = AXIS2_PLACEMENT_3D ( 'NONE', #144, #251, #281 ) ;
#329 = FACE_OUTER_BOUND ( 'NONE', #19, .T. ) ;
#330 = ORIENTED_EDGE ( 'NONE', *, *, #81, .T. ) ;
#331 = DIRECTION ( 'NONE',  ( 1.000000000000000000, 1.465963500825470926E-16, 0.000000000000000000 ) ) ;
#332 = LINE ( 'NONE', #116, #321 ) ;
#333 = CARTESIAN_POINT ( 'NONE',  ( 46.00000000000000000, 19.00000000000001421, 500.0000000000000000 ) ) ;
#334 = FACE_OUTER_BOUND ( 'NONE', #209, .T. ) ;
ENDSEC;
END-ISO-10303-21;
