ISO-10303-21;
HEADER;
FILE_DESCRIPTION (( 'STEP AP214' ),
    '1' );
FILE_NAME ('Standard 3 INOX-L 2000mm.STEP',
    '2022-04-08T13:51:09',
    ( '' ),
    ( '' ),
    'SwSTEP 2.0',
    'SolidWorks 2020',
    '' );
FILE_SCHEMA (( 'AUTOMOTIVE_DESIGN' ));
ENDSEC;

DATA;
#1 = VERTEX_POINT ( 'NONE', #43 ) ;
#2 = SURFACE_SIDE_STYLE ('',( #89 ) ) ;
#3 = FACE_OUTER_BOUND ( 'NONE', #179, .T. ) ;
#4 = PRESENTATION_LAYER_ASSIGNMENT (  '', '', ( #144 ) ) ;
#5 = CARTESIAN_POINT ( 'NONE',  ( 59.70000000000000284, 20.00000000000000000, 1000.000000000000000 ) ) ;
#6 = LINE ( 'NONE', #131, #213 ) ;
#7 = VERTEX_POINT ( 'NONE', #250 ) ;
#8 = ADVANCED_FACE ( 'NONE', ( #18 ), #324, .T. ) ;
#9 = LINE ( 'NONE', #113, #97 ) ;
#10 = DIRECTION ( 'NONE',  ( 0.000000000000000000, -0.000000000000000000, -1.000000000000000000 ) ) ;
#11 = ORIENTED_EDGE ( 'NONE', *, *, #317, .T. ) ;
#12 = DIRECTION ( 'NONE',  ( 9.251858538542971828E-16, -1.000000000000000000, 0.000000000000000000 ) ) ;
#13 = ORIENTED_EDGE ( 'NONE', *, *, #305, .F. ) ;
#14 = VECTOR ( 'NONE', #33, 1000.000000000000000 ) ;
#15 = DIRECTION ( 'NONE',  ( 1.000000000000000000, 9.251858538542971828E-16, 0.000000000000000000 ) ) ;
#16 = VERTEX_POINT ( 'NONE', #181 ) ;
#17 = PLANE ( 'NONE',  #304 ) ;
#18 = FACE_OUTER_BOUND ( 'NONE', #243, .T. ) ;
#19 = ORIENTED_EDGE ( 'NONE', *, *, #200, .F. ) ;
#20 =( NAMED_UNIT ( * ) SI_UNIT ( $, .STERADIAN. ) SOLID_ANGLE_UNIT ( ) );
#21 = VERTEX_POINT ( 'NONE', #275 ) ;
#22 = EDGE_CURVE ( 'NONE', #217, #133, #48, .T. ) ;
#23 = DIRECTION ( 'NONE',  ( 1.000000000000000000, 0.000000000000000000, 0.000000000000000000 ) ) ;
#24 = CARTESIAN_POINT ( 'NONE',  ( 44.70000000000000284, -20.00000000000000000, 1000.000000000000000 ) ) ;
#25 = SURFACE_SIDE_STYLE ('',( #187 ) ) ;
#26 = MECHANICAL_DESIGN_GEOMETRIC_PRESENTATION_REPRESENTATION (  '', ( #144 ), #333 ) ;
#27 = EDGE_CURVE ( 'NONE', #16, #77, #106, .T. ) ;
#28 = UNCERTAINTY_MEASURE_WITH_UNIT (LENGTH_MEASURE( 1.000000000000000082E-05 ), #325, 'distance_accuracy_value', 'NONE');
#29 = AXIS2_PLACEMENT_3D ( 'NONE', #24, #219, #218 ) ;
#30 = FACE_OUTER_BOUND ( 'NONE', #41, .T. ) ;
#31 = ORIENTED_EDGE ( 'NONE', *, *, #169, .T. ) ;
#32 = LINE ( 'NONE', #92, #212 ) ;
#33 = DIRECTION ( 'NONE',  ( -1.387778780781445676E-16, 1.000000000000000000, -0.000000000000000000 ) ) ;
#34 = VECTOR ( 'NONE', #47, 1000.000000000000000 ) ;
#35 = EDGE_CURVE ( 'NONE', #53, #165, #155, .T. ) ;
#36 = ORIENTED_EDGE ( 'NONE', *, *, #185, .T. ) ;
#37 = EDGE_CURVE ( 'NONE', #211, #7, #135, .T. ) ;
#38 = LINE ( 'NONE', #117, #56 ) ;
#39 = VERTEX_POINT ( 'NONE', #138 ) ;
#40 = CARTESIAN_POINT ( 'NONE',  ( 44.70000000000000284, -20.00000000000000000, -1000.000000000000000 ) ) ;
#41 = EDGE_LOOP ( 'NONE', ( #147, #265, #151, #231 ) ) ;
#42 = DIRECTION ( 'NONE',  ( 0.000000000000000000, 0.000000000000000000, 1.000000000000000000 ) ) ;
#43 = CARTESIAN_POINT ( 'NONE',  ( 44.70000000000000284, 20.00000000000000000, -1000.000000000000000 ) ) ;
#44 = VECTOR ( 'NONE', #206, 1000.000000000000000 ) ;
#45 = DIRECTION ( 'NONE',  ( -0.000000000000000000, -0.000000000000000000, -1.000000000000000000 ) ) ;
#46 = ORIENTED_EDGE ( 'NONE', *, *, #307, .F. ) ;
#47 = DIRECTION ( 'NONE',  ( -0.000000000000000000, -0.000000000000000000, -1.000000000000000000 ) ) ;
#48 = LINE ( 'NONE', #149, #130 ) ;
#49 =( NAMED_UNIT ( * ) PLANE_ANGLE_UNIT ( ) SI_UNIT ( $, .RADIAN. ) );
#50 = ORIENTED_EDGE ( 'NONE', *, *, #169, .F. ) ;
#51 = EDGE_CURVE ( 'NONE', #133, #115, #9, .T. ) ;
#52 = PLANE ( 'NONE',  #29 ) ;
#53 = VERTEX_POINT ( 'NONE', #269 ) ;
#54 = CARTESIAN_POINT ( 'NONE',  ( 0.000000000000000000, 0.000000000000000000, 0.000000000000000000 ) ) ;
#55 = PRESENTATION_STYLE_ASSIGNMENT (( #234 ) ) ;
#56 = VECTOR ( 'NONE', #188, 1000.000000000000000 ) ;
#57 = DIRECTION ( 'NONE',  ( -1.000000000000000000, -1.162293786249116878E-16, 0.000000000000000000 ) ) ;
#58 = LINE ( 'NONE', #192, #159 ) ;
#59 = VECTOR ( 'NONE', #174, 1000.000000000000000 ) ;
#60 = VECTOR ( 'NONE', #299, 1000.000000000000000 ) ;
#61 = VERTEX_POINT ( 'NONE', #94 ) ;
#62 = FACE_OUTER_BOUND ( 'NONE', #296, .T. ) ;
#63 = APPLICATION_CONTEXT ( 'automotive_design' ) ;
#64 = DIRECTION ( 'NONE',  ( -1.000000000000000000, 0.000000000000000000, 0.000000000000000000 ) ) ;
#65 = DIRECTION ( 'NONE',  ( -0.000000000000000000, -1.000000000000000000, -0.000000000000000000 ) ) ;
#66 = ORIENTED_EDGE ( 'NONE', *, *, #140, .F. ) ;
#67 = EDGE_CURVE ( 'NONE', #211, #229, #116, .T. ) ;
#68 = DIRECTION ( 'NONE',  ( 0.000000000000000000, -1.000000000000000000, 0.000000000000000000 ) ) ;
#69 = VECTOR ( 'NONE', #201, 1000.000000000000000 ) ;
#70 = EDGE_LOOP ( 'NONE', ( #186, #50, #321, #220 ) ) ;
#71 = CARTESIAN_POINT ( 'NONE',  ( -59.70000000000000284, 19.99999999999998579, 1000.000000000000000 ) ) ;
#72 = CARTESIAN_POINT ( 'NONE',  ( 44.70000000000000284, 20.00000000000000000, 1000.000000000000000 ) ) ;
#73 = ORIENTED_EDGE ( 'NONE', *, *, #140, .T. ) ;
#74 = DIRECTION ( 'NONE',  ( 1.387778780781445676E-16, -1.000000000000000000, 0.000000000000000000 ) ) ;
#75 = VERTEX_POINT ( 'NONE', #71 ) ;
#76 = DIRECTION ( 'NONE',  ( 1.000000000000000000, 0.000000000000000000, -0.000000000000000000 ) ) ;
#77 = VERTEX_POINT ( 'NONE', #171 ) ;
#78 = PLANE ( 'NONE',  #137 ) ;
#79 = EDGE_LOOP ( 'NONE', ( #36, #279, #19, #261 ) ) ;
#80 = PLANE ( 'NONE',  #258 ) ;
#81 = EDGE_CURVE ( 'NONE', #7, #1, #207, .T. ) ;
#82 = ORIENTED_EDGE ( 'NONE', *, *, #100, .T. ) ;
#83 = COLOUR_RGB ( '',0.7764705882352941346, 0.7568627450980391913, 0.7372549019607843590 ) ;
#84 = VECTOR ( 'NONE', #289, 1000.000000000000000 ) ;
#85 = FILL_AREA_STYLE ('',( #306 ) ) ;
#86 = DIRECTION ( 'NONE',  ( 0.000000000000000000, 0.000000000000000000, 1.000000000000000000 ) ) ;
#87 = UNCERTAINTY_MEASURE_WITH_UNIT (LENGTH_MEASURE( 1.000000000000000082E-05 ), #114, 'distance_accuracy_value', 'NONE');
#88 = ADVANCED_FACE ( 'NONE', ( #278 ), #52, .F. ) ;
#89 = SURFACE_STYLE_FILL_AREA ( #112 ) ;
#90 = ORIENTED_EDGE ( 'NONE', *, *, #81, .F. ) ;
#91 = ORIENTED_EDGE ( 'NONE', *, *, #22, .F. ) ;
#92 = CARTESIAN_POINT ( 'NONE',  ( -59.70000000000000284, 19.99999999999998579, -1000.000000000000000 ) ) ;
#93 = ORIENTED_EDGE ( 'NONE', *, *, #168, .T. ) ;
#94 = CARTESIAN_POINT ( 'NONE',  ( -44.70000000000000284, 20.00000000000000000, 1000.000000000000000 ) ) ;
#95 = CARTESIAN_POINT ( 'NONE',  ( 44.70000000000000284, -20.00000000000000000, 1000.000000000000000 ) ) ;
#96 = FACE_OUTER_BOUND ( 'NONE', #79, .T. ) ;
#97 = VECTOR ( 'NONE', #291, 1000.000000000000000 ) ;
#98 = EDGE_LOOP ( 'NONE', ( #91, #46, #263, #90, #121, #66, #196, #101 ) ) ;
#99 = CARTESIAN_POINT ( 'NONE',  ( 0.000000000000000000, 0.000000000000000000, -1000.000000000000000 ) ) ;
#100 = EDGE_CURVE ( 'NONE', #115, #202, #32, .T. ) ;
#101 = ORIENTED_EDGE ( 'NONE', *, *, #51, .F. ) ;
#102 = CARTESIAN_POINT ( 'NONE',  ( -59.70000000000000284, 19.99999999999998579, 1000.000000000000000 ) ) ;
#103 = CARTESIAN_POINT ( 'NONE',  ( -44.70000000000000284, -20.00000000000000000, -1000.000000000000000 ) ) ;
#104 = CARTESIAN_POINT ( 'NONE',  ( 0.000000000000000000, 0.000000000000000000, 1000.000000000000000 ) ) ;
#105 = CARTESIAN_POINT ( 'NONE',  ( -44.70000000000000284, 20.00000000000000000, 1000.000000000000000 ) ) ;
#106 = LINE ( 'NONE', #208, #292 ) ;
#107 = SHAPE_DEFINITION_REPRESENTATION ( #129, #267 ) ;
#108 = PRODUCT_DEFINITION_CONTEXT ( 'detailed design', #146, 'design' ) ;
#109 = APPLICATION_PROTOCOL_DEFINITION ( 'draft international standard', 'automotive_design', 1998, #63 ) ;
#110 = ADVANCED_FACE ( 'NONE', ( #30 ), #256, .F. ) ;
#111 = PRESENTATION_STYLE_ASSIGNMENT (( #189 ) ) ;
#112 = FILL_AREA_STYLE ('',( #239 ) ) ;
#113 = CARTESIAN_POINT ( 'NONE',  ( -44.70000000000000284, 20.00000000000000000, -1000.000000000000000 ) ) ;
#114 =( LENGTH_UNIT ( ) NAMED_UNIT ( * ) SI_UNIT ( .MILLI., .METRE. ) );
#115 = VERTEX_POINT ( 'NONE', #132 ) ;
#116 = LINE ( 'NONE', #223, #119 ) ;
#117 = CARTESIAN_POINT ( 'NONE',  ( 59.70000000000000284, 20.00000000000000000, 1000.000000000000000 ) ) ;
#118 = LINE ( 'NONE', #40, #156 ) ;
#119 = VECTOR ( 'NONE', #315, 1000.000000000000000 ) ;
#120 =( GEOMETRIC_REPRESENTATION_CONTEXT ( 3 ) GLOBAL_UNCERTAINTY_ASSIGNED_CONTEXT ( ( #87 ) ) GLOBAL_UNIT_ASSIGNED_CONTEXT ( ( #114, #287, #264 ) ) REPRESENTATION_CONTEXT ( 'NONE', 'WORKASPACE' ) );
#121 = ORIENTED_EDGE ( 'NONE', *, *, #185, .F. ) ;
#122 = PLANE ( 'NONE',  #293 ) ;
#123 = DIRECTION ( 'NONE',  ( -0.000000000000000000, -0.000000000000000000, -1.000000000000000000 ) ) ;
#124 = ORIENTED_EDGE ( 'NONE', *, *, #276, .F. ) ;
#125 = DIRECTION ( 'NONE',  ( 0.000000000000000000, -1.000000000000000000, 0.000000000000000000 ) ) ;
#126 = VECTOR ( 'NONE', #123, 1000.000000000000000 ) ;
#127 = ORIENTED_EDGE ( 'NONE', *, *, #316, .F. ) ;
#128 = ADVANCED_FACE ( 'NONE', ( #3 ), #285, .F. ) ;
#129 = PRODUCT_DEFINITION_SHAPE ( 'NONE', 'NONE',  #216 ) ;
#130 = VECTOR ( 'NONE', #326, 1000.000000000000000 ) ;
#131 = CARTESIAN_POINT ( 'NONE',  ( -44.70000000000000284, 20.00000000000000000, 1000.000000000000000 ) ) ;
#132 = CARTESIAN_POINT ( 'NONE',  ( -59.70000000000000284, 19.99999999999998579, -1000.000000000000000 ) ) ;
#133 = VERTEX_POINT ( 'NONE', #162 ) ;
#134 = PLANE ( 'NONE',  #178 ) ;
#135 = LINE ( 'NONE', #5, #59 ) ;
#136 = DIRECTION ( 'NONE',  ( 1.000000000000000000, 1.162293786249116878E-16, -0.000000000000000000 ) ) ;
#137 = AXIS2_PLACEMENT_3D ( 'NONE', #274, #298, #74 ) ;
#138 = CARTESIAN_POINT ( 'NONE',  ( -59.70000000000000284, -30.00000000000001776, 1000.000000000000000 ) ) ;
#139 = LINE ( 'NONE', #160, #84 ) ;
#140 = EDGE_CURVE ( 'NONE', #202, #77, #215, .T. ) ;
#141 = DIRECTION ( 'NONE',  ( -1.000000000000000000, 0.000000000000000000, 0.000000000000000000 ) ) ;
#142 = ORIENTED_EDGE ( 'NONE', *, *, #67, .T. ) ;
#143 = LINE ( 'NONE', #102, #152 ) ;
#144 = STYLED_ITEM ( 'NONE', ( #55 ), #267 ) ;
#145 = DIRECTION ( 'NONE',  ( 0.000000000000000000, -0.000000000000000000, 1.000000000000000000 ) ) ;
#146 = APPLICATION_CONTEXT ( 'automotive_design' ) ;
#147 = ORIENTED_EDGE ( 'NONE', *, *, #81, .T. ) ;
#148 = CARTESIAN_POINT ( 'NONE',  ( -59.70000000000000284, 19.99999999999998579, 1000.000000000000000 ) ) ;
#149 = CARTESIAN_POINT ( 'NONE',  ( -44.70000000000000284, -20.00000000000000000, -1000.000000000000000 ) ) ;
#150 = VECTOR ( 'NONE', #64, 1000.000000000000000 ) ;
#151 = ORIENTED_EDGE ( 'NONE', *, *, #67, .F. ) ;
#152 = VECTOR ( 'NONE', #125, 1000.000000000000000 ) ;
#153 = PRODUCT_CONTEXT ( 'NONE', #63, 'mechanical' ) ;
#154 = MANIFOLD_SOLID_BREP ( 'Boss-Extrude1', #318 ) ;
#155 = LINE ( 'NONE', #166, #150 ) ;
#156 = VECTOR ( 'NONE', #141, 1000.000000000000000 ) ;
#157 = ADVANCED_FACE ( 'NONE', ( #62 ), #134, .F. ) ;
#158 = MECHANICAL_DESIGN_GEOMETRIC_PRESENTATION_REPRESENTATION (  '', ( #330 ), #120 ) ;
#159 = VECTOR ( 'NONE', #65, 1000.000000000000000 ) ;
#160 = CARTESIAN_POINT ( 'NONE',  ( -44.70000000000000284, -20.00000000000000000, 1000.000000000000000 ) ) ;
#161 = ORIENTED_EDGE ( 'NONE', *, *, #252, .T. ) ;
#162 = CARTESIAN_POINT ( 'NONE',  ( -44.70000000000000284, 20.00000000000000000, -1000.000000000000000 ) ) ;
#163 = ORIENTED_EDGE ( 'NONE', *, *, #305, .T. ) ;
#164 = LINE ( 'NONE', #262, #14 ) ;
#165 = VERTEX_POINT ( 'NONE', #312 ) ;
#166 = CARTESIAN_POINT ( 'NONE',  ( 44.70000000000000284, -20.00000000000000000, 1000.000000000000000 ) ) ;
#167 = CARTESIAN_POINT ( 'NONE',  ( 59.70000000000000284, 20.00000000000000000, 1000.000000000000000 ) ) ;
#168 = EDGE_CURVE ( 'NONE', #1, #21, #58, .T. ) ;
#169 = EDGE_CURVE ( 'NONE', #165, #217, #139, .T. ) ;
#170 = ORIENTED_EDGE ( 'NONE', *, *, #253, .F. ) ;
#171 = CARTESIAN_POINT ( 'NONE',  ( 59.70000000000000995, -30.00000000000000355, -1000.000000000000000 ) ) ;
#172 = FACE_OUTER_BOUND ( 'NONE', #240, .T. ) ;
#173 = ORIENTED_EDGE ( 'NONE', *, *, #316, .T. ) ;
#174 = DIRECTION ( 'NONE',  ( -0.000000000000000000, -0.000000000000000000, -1.000000000000000000 ) ) ;
#175 = CARTESIAN_POINT ( 'NONE',  ( -59.70000000000000284, -30.00000000000001776, -1000.000000000000000 ) ) ;
#176 = ORIENTED_EDGE ( 'NONE', *, *, #253, .T. ) ;
#177 = LINE ( 'NONE', #323, #60 ) ;
#178 = AXIS2_PLACEMENT_3D ( 'NONE', #241, #238, #308 ) ;
#179 = EDGE_LOOP ( 'NONE', ( #73, #222, #290, #313 ) ) ;
#180 = LINE ( 'NONE', #294, #69 ) ;
#181 = CARTESIAN_POINT ( 'NONE',  ( 59.70000000000000995, -30.00000000000000355, 1000.000000000000000 ) ) ;
#182 = CARTESIAN_POINT ( 'NONE',  ( 59.70000000000000284, 20.00000000000000000, -1000.000000000000000 ) ) ;
#183 =( NAMED_UNIT ( * ) PLANE_ANGLE_UNIT ( ) SI_UNIT ( $, .RADIAN. ) );
#184 = DIRECTION ( 'NONE',  ( -1.000000000000000000, 0.000000000000000000, 0.000000000000000000 ) ) ;
#185 = EDGE_CURVE ( 'NONE', #77, #7, #164, .T. ) ;
#186 = ORIENTED_EDGE ( 'NONE', *, *, #307, .T. ) ;
#187 = SURFACE_STYLE_FILL_AREA ( #85 ) ;
#188 = DIRECTION ( 'NONE',  ( -1.387778780781445676E-16, 1.000000000000000000, -0.000000000000000000 ) ) ;
#189 = SURFACE_STYLE_USAGE ( .BOTH. , #2 ) ;
#190 = EDGE_CURVE ( 'NONE', #61, #75, #6, .T. ) ;
#191 = ORIENTED_EDGE ( 'NONE', *, *, #233, .F. ) ;
#192 = CARTESIAN_POINT ( 'NONE',  ( 44.70000000000000284, -20.00000000000000000, -1000.000000000000000 ) ) ;
#193 = EDGE_LOOP ( 'NONE', ( #271, #124, #284, #176 ) ) ;
#194 = CARTESIAN_POINT ( 'NONE',  ( 59.70000000000000995, -30.00000000000000355, 1000.000000000000000 ) ) ;
#195 = ADVANCED_FACE ( 'NONE', ( #244 ), #314, .F. ) ;
#196 = ORIENTED_EDGE ( 'NONE', *, *, #100, .F. ) ;
#197 = CARTESIAN_POINT ( 'NONE',  ( -44.70000000000000284, 20.00000000000000000, 1000.000000000000000 ) ) ;
#198 = PRODUCT_DEFINITION_FORMATION_WITH_SPECIFIED_SOURCE ( 'ANY', '', #327, .NOT_KNOWN. ) ;
#199 = ORIENTED_EDGE ( 'NONE', *, *, #255, .F. ) ;
#200 = EDGE_CURVE ( 'NONE', #16, #211, #38, .T. ) ;
#201 = DIRECTION ( 'NONE',  ( -0.000000000000000000, -1.000000000000000000, -0.000000000000000000 ) ) ;
#202 = VERTEX_POINT ( 'NONE', #175 ) ;
#203 = LINE ( 'NONE', #266, #283 ) ;
#204 = CARTESIAN_POINT ( 'NONE',  ( -44.70000000000000284, -20.00000000000000000, 1000.000000000000000 ) ) ;
#205 = DIRECTION ( 'NONE',  ( 0.000000000000000000, -0.000000000000000000, 1.000000000000000000 ) ) ;
#206 = DIRECTION ( 'NONE',  ( -0.000000000000000000, -0.000000000000000000, -1.000000000000000000 ) ) ;
#207 = LINE ( 'NONE', #182, #235 ) ;
#208 = CARTESIAN_POINT ( 'NONE',  ( 59.70000000000000995, -30.00000000000000355, 1000.000000000000000 ) ) ;
#209 = UNCERTAINTY_MEASURE_WITH_UNIT (LENGTH_MEASURE( 1.000000000000000082E-05 ), #331, 'distance_accuracy_value', 'NONE');
#210 = ADVANCED_FACE ( 'NONE', ( #303 ), #17, .F. ) ;
#211 = VERTEX_POINT ( 'NONE', #272 ) ;
#212 = VECTOR ( 'NONE', #310, 1000.000000000000000 ) ;
#213 = VECTOR ( 'NONE', #221, 1000.000000000000000 ) ;
#214 = AXIS2_PLACEMENT_3D ( 'NONE', #95, #68, #10 ) ;
#215 = LINE ( 'NONE', #309, #277 ) ;
#216 = PRODUCT_DEFINITION ( 'UNKNOWN', '', #198, #108 ) ;
#217 = VERTEX_POINT ( 'NONE', #103 ) ;
#218 = DIRECTION ( 'NONE',  ( 0.000000000000000000, 0.000000000000000000, -1.000000000000000000 ) ) ;
#219 = DIRECTION ( 'NONE',  ( 1.000000000000000000, 0.000000000000000000, 0.000000000000000000 ) ) ;
#220 = ORIENTED_EDGE ( 'NONE', *, *, #281, .T. ) ;
#221 = DIRECTION ( 'NONE',  ( -1.000000000000000000, -9.251858538542971828E-16, 0.000000000000000000 ) ) ;
#222 = ORIENTED_EDGE ( 'NONE', *, *, #27, .F. ) ;
#223 = CARTESIAN_POINT ( 'NONE',  ( 59.70000000000000284, 20.00000000000000000, 1000.000000000000000 ) ) ;
#224 = CARTESIAN_POINT ( 'NONE',  ( -59.70000000000000284, -30.00000000000001776, 1000.000000000000000 ) ) ;
#225 = AXIS2_PLACEMENT_3D ( 'NONE', #194, #334, #57 ) ;
#226 = LINE ( 'NONE', #224, #44 ) ;
#227 = AXIS2_PLACEMENT_3D ( 'NONE', #54, #86, #23 ) ;
#228 = LINE ( 'NONE', #204, #254 ) ;
#229 = VERTEX_POINT ( 'NONE', #72 ) ;
#230 = CARTESIAN_POINT ( 'NONE',  ( 44.70000000000000284, -20.00000000000000000, 1000.000000000000000 ) ) ;
#231 = ORIENTED_EDGE ( 'NONE', *, *, #37, .T. ) ;
#232 = DIRECTION ( 'NONE',  ( -1.000000000000000000, 0.000000000000000000, 0.000000000000000000 ) ) ;
#233 = EDGE_CURVE ( 'NONE', #39, #202, #226, .T. ) ;
#234 = SURFACE_STYLE_USAGE ( .BOTH. , #25 ) ;
#235 = VECTOR ( 'NONE', #184, 1000.000000000000000 ) ;
#236 = AXIS2_PLACEMENT_3D ( 'NONE', #104, #205, #302 ) ;
#237 = PRODUCT_RELATED_PRODUCT_CATEGORY ( 'part', '', ( #327 ) ) ;
#238 = DIRECTION ( 'NONE',  ( 1.000000000000000000, 0.000000000000000000, -0.000000000000000000 ) ) ;
#239 = FILL_AREA_STYLE_COLOUR ( '', #83 ) ;
#240 = EDGE_LOOP ( 'NONE', ( #260, #170, #13, #31 ) ) ;
#241 = CARTESIAN_POINT ( 'NONE',  ( -59.70000000000000284, 19.99999999999998579, 1000.000000000000000 ) ) ;
#242 = VECTOR ( 'NONE', #45, 1000.000000000000000 ) ;
#243 = EDGE_LOOP ( 'NONE', ( #163, #251, #173, #11, #245, #142, #286, #288 ) ) ;
#244 = FACE_OUTER_BOUND ( 'NONE', #70, .T. ) ;
#245 = ORIENTED_EDGE ( 'NONE', *, *, #200, .T. ) ;
#246 = DIRECTION ( 'NONE',  ( -0.000000000000000000, -0.000000000000000000, -1.000000000000000000 ) ) ;
#247 = CARTESIAN_POINT ( 'NONE',  ( -44.70000000000000284, -20.00000000000000000, 1000.000000000000000 ) ) ;
#248 = ADVANCED_FACE ( 'NONE', ( #172 ), #122, .F. ) ;
#249 = LINE ( 'NONE', #105, #126 ) ;
#250 = CARTESIAN_POINT ( 'NONE',  ( 59.70000000000000284, 20.00000000000000000, -1000.000000000000000 ) ) ;
#251 = ORIENTED_EDGE ( 'NONE', *, *, #190, .T. ) ;
#252 = EDGE_CURVE ( 'NONE', #229, #1, #203, .T. ) ;
#253 = EDGE_CURVE ( 'NONE', #61, #133, #249, .T. ) ;
#254 = VECTOR ( 'NONE', #322, 1000.000000000000000 ) ;
#255 = EDGE_CURVE ( 'NONE', #229, #53, #180, .T. ) ;
#256 = PLANE ( 'NONE',  #332 ) ;
#257 = PRESENTATION_LAYER_ASSIGNMENT (  '', '', ( #330 ) ) ;
#258 = AXIS2_PLACEMENT_3D ( 'NONE', #99, #145, #76 ) ;
#259 = DIRECTION ( 'NONE',  ( 0.000000000000000000, -0.000000000000000000, -1.000000000000000000 ) ) ;
#260 = ORIENTED_EDGE ( 'NONE', *, *, #22, .T. ) ;
#261 = ORIENTED_EDGE ( 'NONE', *, *, #27, .T. ) ;
#262 = CARTESIAN_POINT ( 'NONE',  ( 59.70000000000000284, 20.00000000000000000, -1000.000000000000000 ) ) ;
#263 = ORIENTED_EDGE ( 'NONE', *, *, #168, .F. ) ;
#264 =( NAMED_UNIT ( * ) SI_UNIT ( $, .STERADIAN. ) SOLID_ANGLE_UNIT ( ) );
#265 = ORIENTED_EDGE ( 'NONE', *, *, #252, .F. ) ;
#266 = CARTESIAN_POINT ( 'NONE',  ( 44.70000000000000284, 20.00000000000000000, 1000.000000000000000 ) ) ;
#267 = ADVANCED_BREP_SHAPE_REPRESENTATION ( 'Standard 3 INOX-L 2000mm', ( #154, #227 ), #300 ) ;
#268 = ORIENTED_EDGE ( 'NONE', *, *, #276, .T. ) ;
#269 = CARTESIAN_POINT ( 'NONE',  ( 44.70000000000000284, -20.00000000000000000, 1000.000000000000000 ) ) ;
#270 = LINE ( 'NONE', #148, #34 ) ;
#271 = ORIENTED_EDGE ( 'NONE', *, *, #51, .T. ) ;
#272 = CARTESIAN_POINT ( 'NONE',  ( 59.70000000000000284, 20.00000000000000000, 1000.000000000000000 ) ) ;
#273 = ORIENTED_EDGE ( 'NONE', *, *, #281, .F. ) ;
#274 = CARTESIAN_POINT ( 'NONE',  ( 59.70000000000000284, 20.00000000000000000, 1000.000000000000000 ) ) ;
#275 = CARTESIAN_POINT ( 'NONE',  ( 44.70000000000000284, -20.00000000000000000, -1000.000000000000000 ) ) ;
#276 = EDGE_CURVE ( 'NONE', #75, #115, #270, .T. ) ;
#277 = VECTOR ( 'NONE', #136, 1000.000000000000000 ) ;
#278 = FACE_OUTER_BOUND ( 'NONE', #311, .T. ) ;
#279 = ORIENTED_EDGE ( 'NONE', *, *, #37, .F. ) ;
#280 = DIRECTION ( 'NONE',  ( -0.000000000000000000, -0.000000000000000000, -1.000000000000000000 ) ) ;
#281 = EDGE_CURVE ( 'NONE', #53, #21, #297, .T. ) ;
#282 = DIRECTION ( 'NONE',  ( 0.000000000000000000, -1.000000000000000000, 0.000000000000000000 ) ) ;
#283 = VECTOR ( 'NONE', #246, 1000.000000000000000 ) ;
#284 = ORIENTED_EDGE ( 'NONE', *, *, #190, .F. ) ;
#285 = PLANE ( 'NONE',  #225 ) ;
#286 = ORIENTED_EDGE ( 'NONE', *, *, #255, .T. ) ;
#287 =( NAMED_UNIT ( * ) PLANE_ANGLE_UNIT ( ) SI_UNIT ( $, .RADIAN. ) );
#288 = ORIENTED_EDGE ( 'NONE', *, *, #35, .T. ) ;
#289 = DIRECTION ( 'NONE',  ( -0.000000000000000000, -0.000000000000000000, -1.000000000000000000 ) ) ;
#290 = ORIENTED_EDGE ( 'NONE', *, *, #317, .F. ) ;
#291 = DIRECTION ( 'NONE',  ( -1.000000000000000000, -9.251858538542971828E-16, 0.000000000000000000 ) ) ;
#292 = VECTOR ( 'NONE', #280, 1000.000000000000000 ) ;
#293 = AXIS2_PLACEMENT_3D ( 'NONE', #247, #232, #42 ) ;
#294 = CARTESIAN_POINT ( 'NONE',  ( 44.70000000000000284, -20.00000000000000000, 1000.000000000000000 ) ) ;
#295 = ADVANCED_FACE ( 'NONE', ( #320 ), #80, .F. ) ;
#296 = EDGE_LOOP ( 'NONE', ( #82, #191, #127, #268 ) ) ;
#297 = LINE ( 'NONE', #230, #242 ) ;
#298 = DIRECTION ( 'NONE',  ( -1.000000000000000000, -1.387778780781445676E-16, 0.000000000000000000 ) ) ;
#299 = DIRECTION ( 'NONE',  ( 1.000000000000000000, 1.162293786249116878E-16, -0.000000000000000000 ) ) ;
#300 =( GEOMETRIC_REPRESENTATION_CONTEXT ( 3 ) GLOBAL_UNCERTAINTY_ASSIGNED_CONTEXT ( ( #28 ) ) GLOBAL_UNIT_ASSIGNED_CONTEXT ( ( #325, #49, #20 ) ) REPRESENTATION_CONTEXT ( 'NONE', 'WORKASPACE' ) );
#301 = ADVANCED_FACE ( 'NONE', ( #96 ), #78, .F. ) ;
#302 = DIRECTION ( 'NONE',  ( 1.000000000000000000, 0.000000000000000000, -0.000000000000000000 ) ) ;
#303 = FACE_OUTER_BOUND ( 'NONE', #193, .T. ) ;
#304 = AXIS2_PLACEMENT_3D ( 'NONE', #197, #12, #15 ) ;
#305 = EDGE_CURVE ( 'NONE', #165, #61, #228, .T. ) ;
#306 = FILL_AREA_STYLE_COLOUR ( '', #319 ) ;
#307 = EDGE_CURVE ( 'NONE', #21, #217, #118, .T. ) ;
#308 = DIRECTION ( 'NONE',  ( -0.000000000000000000, 0.000000000000000000, -1.000000000000000000 ) ) ;
#309 = CARTESIAN_POINT ( 'NONE',  ( 59.70000000000000995, -30.00000000000000355, -1000.000000000000000 ) ) ;
#310 = DIRECTION ( 'NONE',  ( 0.000000000000000000, -1.000000000000000000, 0.000000000000000000 ) ) ;
#311 = EDGE_LOOP ( 'NONE', ( #93, #273, #199, #161 ) ) ;
#312 = CARTESIAN_POINT ( 'NONE',  ( -44.70000000000000284, -20.00000000000000000, 1000.000000000000000 ) ) ;
#313 = ORIENTED_EDGE ( 'NONE', *, *, #233, .T. ) ;
#314 = PLANE ( 'NONE',  #214 ) ;
#315 = DIRECTION ( 'NONE',  ( -1.000000000000000000, 0.000000000000000000, 0.000000000000000000 ) ) ;
#316 = EDGE_CURVE ( 'NONE', #75, #39, #143, .T. ) ;
#317 = EDGE_CURVE ( 'NONE', #39, #16, #177, .T. ) ;
#318 = CLOSED_SHELL ( 'NONE', ( #248, #210, #157, #128, #301, #110, #88, #195, #8, #295 ) ) ;
#319 = COLOUR_RGB ( '',0.7764705882352941346, 0.7568627450980391913, 0.7372549019607843590 ) ;
#320 = FACE_OUTER_BOUND ( 'NONE', #98, .T. ) ;
#321 = ORIENTED_EDGE ( 'NONE', *, *, #35, .F. ) ;
#322 = DIRECTION ( 'NONE',  ( 0.000000000000000000, 1.000000000000000000, 0.000000000000000000 ) ) ;
#323 = CARTESIAN_POINT ( 'NONE',  ( 59.70000000000000995, -30.00000000000000355, 1000.000000000000000 ) ) ;
#324 = PLANE ( 'NONE',  #236 ) ;
#325 =( LENGTH_UNIT ( ) NAMED_UNIT ( * ) SI_UNIT ( .MILLI., .METRE. ) );
#326 = DIRECTION ( 'NONE',  ( 0.000000000000000000, 1.000000000000000000, 0.000000000000000000 ) ) ;
#327 = PRODUCT ( 'Standard 3 INOX-L 2000mm', 'Standard 3 INOX-L 2000mm', '', ( #153 ) ) ;
#328 = APPLICATION_PROTOCOL_DEFINITION ( 'draft international standard', 'automotive_design', 1998, #146 ) ;
#329 =( NAMED_UNIT ( * ) SI_UNIT ( $, .STERADIAN. ) SOLID_ANGLE_UNIT ( ) );
#330 = STYLED_ITEM ( 'NONE', ( #111 ), #154 ) ;
#331 =( LENGTH_UNIT ( ) NAMED_UNIT ( * ) SI_UNIT ( .MILLI., .METRE. ) );
#332 = AXIS2_PLACEMENT_3D ( 'NONE', #167, #282, #259 ) ;
#333 =( GEOMETRIC_REPRESENTATION_CONTEXT ( 3 ) GLOBAL_UNCERTAINTY_ASSIGNED_CONTEXT ( ( #209 ) ) GLOBAL_UNIT_ASSIGNED_CONTEXT ( ( #331, #183, #329 ) ) REPRESENTATION_CONTEXT ( 'NONE', 'WORKASPACE' ) );
#334 = DIRECTION ( 'NONE',  ( -1.162293786249116878E-16, 1.000000000000000000, 0.000000000000000000 ) ) ;
ENDSEC;
END-ISO-10303-21;
