ISO-10303-21;
HEADER;
FILE_DESCRIPTION (( 'STEP AP214' ),
    '1' );
FILE_NAME ('Standard 2 INOX-L 1500mm.STEP',
    '2022-04-08T13:49:44',
    ( '' ),
    ( '' ),
    'SwSTEP 2.0',
    'SolidWorks 2020',
    '' );
FILE_SCHEMA (( 'AUTOMOTIVE_DESIGN' ));
ENDSEC;

DATA;
#1 = CARTESIAN_POINT ( 'NONE',  ( 60.64999999999999858, 15.10000000000000497, 750.0000000000000000 ) ) ;
#2 = CARTESIAN_POINT ( 'NONE',  ( -39.34999999999999432, -15.10000000000000320, -750.0000000000000000 ) ) ;
#3 =( NAMED_UNIT ( * ) PLANE_ANGLE_UNIT ( ) SI_UNIT ( $, .RADIAN. ) );
#4 = PRESENTATION_STYLE_ASSIGNMENT (( #131 ) ) ;
#5 = VECTOR ( 'NONE', #227, 1000.000000000000000 ) ;
#6 = DIRECTION ( 'NONE',  ( 0.000000000000000000, -1.000000000000000000, 0.000000000000000000 ) ) ;
#7 = ORIENTED_EDGE ( 'NONE', *, *, #296, .T. ) ;
#8 = DIRECTION ( 'NONE',  ( 1.000000000000000000, 0.000000000000000000, -0.000000000000000000 ) ) ;
#9 = CARTESIAN_POINT ( 'NONE',  ( 60.64999999999999858, 15.10000000000000497, 750.0000000000000000 ) ) ;
#10 = DIRECTION ( 'NONE',  ( -0.000000000000000000, -1.000000000000000000, -0.000000000000000000 ) ) ;
#11 = CARTESIAN_POINT ( 'NONE',  ( 60.64999999999999858, 15.10000000000000497, -750.0000000000000000 ) ) ;
#12 = ORIENTED_EDGE ( 'NONE', *, *, #320, .F. ) ;
#13 = LINE ( 'NONE', #224, #331 ) ;
#14 = CARTESIAN_POINT ( 'NONE',  ( -60.64999999999999858, 15.09999999999998899, 750.0000000000000000 ) ) ;
#15 = LINE ( 'NONE', #71, #266 ) ;
#16 = CARTESIAN_POINT ( 'NONE',  ( 60.64999999999999858, 15.10000000000000497, -750.0000000000000000 ) ) ;
#17 = ORIENTED_EDGE ( 'NONE', *, *, #19, .T. ) ;
#18 = SURFACE_SIDE_STYLE ('',( #260 ) ) ;
#19 = EDGE_CURVE ( 'NONE', #40, #329, #276, .T. ) ;
#20 = UNCERTAINTY_MEASURE_WITH_UNIT (LENGTH_MEASURE( 1.000000000000000082E-05 ), #28, 'distance_accuracy_value', 'NONE');
#21 = ORIENTED_EDGE ( 'NONE', *, *, #73, .T. ) ;
#22 = AXIS2_PLACEMENT_3D ( 'NONE', #9, #38, #145 ) ;
#23 = CARTESIAN_POINT ( 'NONE',  ( 60.64999999999999858, -25.89999999999998792, -750.0000000000000000 ) ) ;
#24 = SURFACE_SIDE_STYLE ('',( #160 ) ) ;
#25 = EDGE_CURVE ( 'NONE', #204, #95, #15, .T. ) ;
#26 = CARTESIAN_POINT ( 'NONE',  ( -39.34999999999999432, -15.10000000000000320, -750.0000000000000000 ) ) ;
#27 = SHAPE_DEFINITION_REPRESENTATION ( #61, #332 ) ;
#28 =( LENGTH_UNIT ( ) NAMED_UNIT ( * ) SI_UNIT ( .MILLI., .METRE. ) );
#29 = VECTOR ( 'NONE', #183, 1000.000000000000000 ) ;
#30 = DIRECTION ( 'NONE',  ( 5.700969169876833544E-16, -1.000000000000000000, 0.000000000000000000 ) ) ;
#31 = DIRECTION ( 'NONE',  ( 1.000000000000000000, 1.144088030322708924E-16, -0.000000000000000000 ) ) ;
#32 = ORIENTED_EDGE ( 'NONE', *, *, #141, .F. ) ;
#33 = AXIS2_PLACEMENT_3D ( 'NONE', #311, #278, #239 ) ;
#34 = FACE_OUTER_BOUND ( 'NONE', #49, .T. ) ;
#35 = DIRECTION ( 'NONE',  ( -1.000000000000000000, -2.297646988048750896E-16, 0.000000000000000000 ) ) ;
#36 = CARTESIAN_POINT ( 'NONE',  ( 39.34999999999999432, -15.10000000000000142, 750.0000000000000000 ) ) ;
#37 = DIRECTION ( 'NONE',  ( -0.000000000000000000, -0.000000000000000000, -1.000000000000000000 ) ) ;
#38 = DIRECTION ( 'NONE',  ( -1.000000000000000000, 0.000000000000000000, 0.000000000000000000 ) ) ;
#39 = EDGE_CURVE ( 'NONE', #64, #86, #326, .T. ) ;
#40 = VERTEX_POINT ( 'NONE', #213 ) ;
#41 = DIRECTION ( 'NONE',  ( 0.000000000000000000, 0.000000000000000000, 1.000000000000000000 ) ) ;
#42 = CARTESIAN_POINT ( 'NONE',  ( -60.64999999999999858, -25.90000000000000213, 750.0000000000000000 ) ) ;
#43 = ORIENTED_EDGE ( 'NONE', *, *, #168, .T. ) ;
#44 = DIRECTION ( 'NONE',  ( -1.000000000000000000, -1.144088030322708677E-16, 0.000000000000000000 ) ) ;
#45 = COLOUR_RGB ( '',0.7921568627450980005, 0.8196078431372548767, 0.9333333333333333481 ) ;
#46 = UNCERTAINTY_MEASURE_WITH_UNIT (LENGTH_MEASURE( 1.000000000000000082E-05 ), #190, 'distance_accuracy_value', 'NONE');
#47 = ORIENTED_EDGE ( 'NONE', *, *, #78, .T. ) ;
#48 = CARTESIAN_POINT ( 'NONE',  ( 60.64999999999999858, -25.89999999999998792, 750.0000000000000000 ) ) ;
#49 = EDGE_LOOP ( 'NONE', ( #58, #279, #222, #277 ) ) ;
#50 = DIRECTION ( 'NONE',  ( 0.000000000000000000, 0.000000000000000000, 1.000000000000000000 ) ) ;
#51 = PRODUCT_RELATED_PRODUCT_CATEGORY ( 'part', '', ( #90 ) ) ;
#52 = VECTOR ( 'NONE', #188, 1000.000000000000000 ) ;
#53 = FACE_OUTER_BOUND ( 'NONE', #212, .T. ) ;
#54 = FILL_AREA_STYLE_COLOUR ( '', #45 ) ;
#55 = VECTOR ( 'NONE', #66, 1000.000000000000000 ) ;
#56 = EDGE_CURVE ( 'NONE', #317, #333, #102, .T. ) ;
#57 = FILL_AREA_STYLE ('',( #54 ) ) ;
#58 = ORIENTED_EDGE ( 'NONE', *, *, #108, .T. ) ;
#59 = VECTOR ( 'NONE', #106, 1000.000000000000000 ) ;
#60 = LINE ( 'NONE', #322, #191 ) ;
#61 = PRODUCT_DEFINITION_SHAPE ( 'NONE', 'NONE',  #176 ) ;
#62 = AXIS2_PLACEMENT_3D ( 'NONE', #48, #209, #44 ) ;
#63 = DIRECTION ( 'NONE',  ( 1.000000000000000000, 3.257696668501045627E-16, 0.000000000000000000 ) ) ;
#64 = VERTEX_POINT ( 'NONE', #310 ) ;
#65 = VECTOR ( 'NONE', #105, 1000.000000000000000 ) ;
#66 = DIRECTION ( 'NONE',  ( -0.000000000000000000, -0.000000000000000000, -1.000000000000000000 ) ) ;
#67 = DIRECTION ( 'NONE',  ( -0.000000000000000000, 1.000000000000000000, -0.000000000000000000 ) ) ;
#68 = EDGE_LOOP ( 'NONE', ( #174, #180, #182, #208, #206, #324, #69, #237 ) ) ;
#69 = ORIENTED_EDGE ( 'NONE', *, *, #240, .F. ) ;
#70 = PLANE ( 'NONE',  #33 ) ;
#71 = CARTESIAN_POINT ( 'NONE',  ( 60.64999999999999858, -25.89999999999998792, 750.0000000000000000 ) ) ;
#72 = DIRECTION ( 'NONE',  ( -1.000000000000000000, -4.408445936408658804E-17, 0.000000000000000000 ) ) ;
#73 = EDGE_CURVE ( 'NONE', #64, #144, #151, .T. ) ;
#74 = VECTOR ( 'NONE', #166, 1000.000000000000000 ) ;
#75 = ORIENTED_EDGE ( 'NONE', *, *, #218, .F. ) ;
#76 = FACE_OUTER_BOUND ( 'NONE', #178, .T. ) ;
#77 = CARTESIAN_POINT ( 'NONE',  ( 39.34999999999999432, -15.10000000000000142, 750.0000000000000000 ) ) ;
#78 = EDGE_CURVE ( 'NONE', #118, #306, #122, .T. ) ;
#79 = LINE ( 'NONE', #130, #164 ) ;
#80 = AXIS2_PLACEMENT_3D ( 'NONE', #14, #257, #325 ) ;
#81 = EDGE_CURVE ( 'NONE', #333, #152, #79, .T. ) ;
#82 =( NAMED_UNIT ( * ) SI_UNIT ( $, .STERADIAN. ) SOLID_ANGLE_UNIT ( ) );
#83 = ADVANCED_FACE ( 'NONE', ( #104 ), #330, .F. ) ;
#84 = FACE_OUTER_BOUND ( 'NONE', #177, .T. ) ;
#85 = VERTEX_POINT ( 'NONE', #303 ) ;
#86 = VERTEX_POINT ( 'NONE', #16 ) ;
#87 = CARTESIAN_POINT ( 'NONE',  ( 60.64999999999999858, -25.89999999999998792, 750.0000000000000000 ) ) ;
#88 = LINE ( 'NONE', #199, #55 ) ;
#89 = DIRECTION ( 'NONE',  ( 1.000000000000000000, 5.700969169876833544E-16, 0.000000000000000000 ) ) ;
#90 = PRODUCT ( 'Standard 2 INOX-L 1500mm', 'Standard 2 INOX-L 1500mm', '', ( #159 ) ) ;
#91 = VECTOR ( 'NONE', #157, 1000.000000000000000 ) ;
#92 = LINE ( 'NONE', #298, #233 ) ;
#93 = ORIENTED_EDGE ( 'NONE', *, *, #56, .F. ) ;
#94 = PRESENTATION_LAYER_ASSIGNMENT (  '', '', ( #134 ) ) ;
#95 = VERTEX_POINT ( 'NONE', #23 ) ;
#96 = CARTESIAN_POINT ( 'NONE',  ( 60.64999999999999858, 15.10000000000000497, 750.0000000000000000 ) ) ;
#97 = FILL_AREA_STYLE ('',( #207 ) ) ;
#98 = ORIENTED_EDGE ( 'NONE', *, *, #81, .T. ) ;
#99 = DIRECTION ( 'NONE',  ( 0.000000000000000000, 0.000000000000000000, -1.000000000000000000 ) ) ;
#100 = PRODUCT_DEFINITION_CONTEXT ( 'detailed design', #203, 'design' ) ;
#101 = ORIENTED_EDGE ( 'NONE', *, *, #291, .T. ) ;
#102 = LINE ( 'NONE', #305, #289 ) ;
#103 = ADVANCED_FACE ( 'NONE', ( #185 ), #70, .F. ) ;
#104 = FACE_OUTER_BOUND ( 'NONE', #292, .T. ) ;
#105 = DIRECTION ( 'NONE',  ( 0.000000000000000000, -1.000000000000000000, 0.000000000000000000 ) ) ;
#106 = DIRECTION ( 'NONE',  ( -2.297646988048750896E-16, 1.000000000000000000, 0.000000000000000000 ) ) ;
#107 = LINE ( 'NONE', #263, #65 ) ;
#108 = EDGE_CURVE ( 'NONE', #86, #154, #181, .T. ) ;
#109 = CARTESIAN_POINT ( 'NONE',  ( -39.34999999999999432, -15.10000000000000320, 750.0000000000000000 ) ) ;
#110 = EDGE_CURVE ( 'NONE', #85, #172, #285, .T. ) ;
#111 = EDGE_LOOP ( 'NONE', ( #112, #194, #12, #261 ) ) ;
#112 = ORIENTED_EDGE ( 'NONE', *, *, #283, .T. ) ;
#113 = CARTESIAN_POINT ( 'NONE',  ( 60.64999999999999858, -25.89999999999998792, -750.0000000000000000 ) ) ;
#114 = ORIENTED_EDGE ( 'NONE', *, *, #136, .T. ) ;
#115 = CARTESIAN_POINT ( 'NONE',  ( 60.64999999999999858, -25.89999999999998792, 750.0000000000000000 ) ) ;
#116 = ADVANCED_FACE ( 'NONE', ( #53 ), #282, .F. ) ;
#117 = CARTESIAN_POINT ( 'NONE',  ( 39.34999999999999432, 15.09999999999999964, -750.0000000000000000 ) ) ;
#118 = VERTEX_POINT ( 'NONE', #327 ) ;
#119 = VECTOR ( 'NONE', #309, 1000.000000000000000 ) ;
#120 = DIRECTION ( 'NONE',  ( -0.000000000000000000, -0.000000000000000000, -1.000000000000000000 ) ) ;
#121 = EDGE_LOOP ( 'NONE', ( #98, #150, #101, #295, #226, #21, #281, #125 ) ) ;
#122 = LINE ( 'NONE', #262, #297 ) ;
#123 = DIRECTION ( 'NONE',  ( -0.000000000000000000, -0.000000000000000000, -1.000000000000000000 ) ) ;
#124 = LINE ( 'NONE', #231, #127 ) ;
#125 = ORIENTED_EDGE ( 'NONE', *, *, #56, .T. ) ;
#126 = PRESENTATION_STYLE_ASSIGNMENT (( #238 ) ) ;
#127 = VECTOR ( 'NONE', #205, 1000.000000000000000 ) ;
#128 = ORIENTED_EDGE ( 'NONE', *, *, #291, .F. ) ;
#129 =( NAMED_UNIT ( * ) PLANE_ANGLE_UNIT ( ) SI_UNIT ( $, .RADIAN. ) );
#130 = CARTESIAN_POINT ( 'NONE',  ( -39.34999999999999432, -15.10000000000000320, 750.0000000000000000 ) ) ;
#131 = SURFACE_STYLE_USAGE ( .BOTH. , #24 ) ;
#132 = LINE ( 'NONE', #193, #52 ) ;
#133 = ADVANCED_FACE ( 'NONE', ( #76 ), #284, .F. ) ;
#134 = STYLED_ITEM ( 'NONE', ( #4 ), #332 ) ;
#135 =( NAMED_UNIT ( * ) PLANE_ANGLE_UNIT ( ) SI_UNIT ( $, .RADIAN. ) );
#136 = EDGE_CURVE ( 'NONE', #154, #118, #124, .T. ) ;
#137 = MANIFOLD_SOLID_BREP ( 'Boss-Extrude1', #241 ) ;
#138 = LINE ( 'NONE', #87, #248 ) ;
#139 = PRODUCT_DEFINITION_FORMATION_WITH_SPECIFIED_SOURCE ( 'ANY', '', #90, .NOT_KNOWN. ) ;
#140 = FACE_OUTER_BOUND ( 'NONE', #301, .T. ) ;
#141 = EDGE_CURVE ( 'NONE', #144, #317, #13, .T. ) ;
#142 = CARTESIAN_POINT ( 'NONE',  ( 60.64999999999999858, 15.10000000000000497, 750.0000000000000000 ) ) ;
#143 = FACE_OUTER_BOUND ( 'NONE', #111, .T. ) ;
#144 = VERTEX_POINT ( 'NONE', #153 ) ;
#145 = DIRECTION ( 'NONE',  ( 0.000000000000000000, 0.000000000000000000, 1.000000000000000000 ) ) ;
#146 = ORIENTED_EDGE ( 'NONE', *, *, #215, .T. ) ;
#147 = PLANE ( 'NONE',  #308 ) ;
#148 = ORIENTED_EDGE ( 'NONE', *, *, #232, .F. ) ;
#149 = EDGE_CURVE ( 'NONE', #144, #154, #60, .T. ) ;
#150 = ORIENTED_EDGE ( 'NONE', *, *, #218, .T. ) ;
#151 = LINE ( 'NONE', #1, #91 ) ;
#152 = VERTEX_POINT ( 'NONE', #169 ) ;
#153 = CARTESIAN_POINT ( 'NONE',  ( 39.34999999999999432, 15.09999999999999964, 750.0000000000000000 ) ) ;
#154 = VERTEX_POINT ( 'NONE', #117 ) ;
#155 =( LENGTH_UNIT ( ) NAMED_UNIT ( * ) SI_UNIT ( .MILLI., .METRE. ) );
#156 =( GEOMETRIC_REPRESENTATION_CONTEXT ( 3 ) GLOBAL_UNCERTAINTY_ASSIGNED_CONTEXT ( ( #236 ) ) GLOBAL_UNIT_ASSIGNED_CONTEXT ( ( #155, #129, #249 ) ) REPRESENTATION_CONTEXT ( 'NONE', 'WORKASPACE' ) );
#157 = DIRECTION ( 'NONE',  ( -1.000000000000000000, -3.257696668501046120E-16, 0.000000000000000000 ) ) ;
#158 = VECTOR ( 'NONE', #37, 1000.000000000000000 ) ;
#159 = PRODUCT_CONTEXT ( 'NONE', #165, 'mechanical' ) ;
#160 = SURFACE_STYLE_FILL_AREA ( #57 ) ;
#161 =( GEOMETRIC_REPRESENTATION_CONTEXT ( 3 ) GLOBAL_UNCERTAINTY_ASSIGNED_CONTEXT ( ( #46 ) ) GLOBAL_UNIT_ASSIGNED_CONTEXT ( ( #190, #135, #82 ) ) REPRESENTATION_CONTEXT ( 'NONE', 'WORKASPACE' ) );
#162 = EDGE_CURVE ( 'NONE', #333, #306, #92, .T. ) ;
#163 =( NAMED_UNIT ( * ) SI_UNIT ( $, .STERADIAN. ) SOLID_ANGLE_UNIT ( ) );
#164 = VECTOR ( 'NONE', #179, 1000.000000000000000 ) ;
#165 = APPLICATION_CONTEXT ( 'automotive_design' ) ;
#166 = DIRECTION ( 'NONE',  ( 1.000000000000000000, 1.144088030322708924E-16, -0.000000000000000000 ) ) ;
#167 = VECTOR ( 'NONE', #243, 1000.000000000000000 ) ;
#168 = EDGE_CURVE ( 'NONE', #152, #85, #88, .T. ) ;
#169 = CARTESIAN_POINT ( 'NONE',  ( -39.35000000000000142, 15.10000000000000142, 750.0000000000000000 ) ) ;
#170 = PLANE ( 'NONE',  #202 ) ;
#171 = COLOUR_RGB ( '',0.7921568627450980005, 0.8196078431372548767, 0.9333333333333333481 ) ;
#172 = VERTEX_POINT ( 'NONE', #175 ) ;
#173 = LINE ( 'NONE', #273, #158 ) ;
#174 = ORIENTED_EDGE ( 'NONE', *, *, #296, .F. ) ;
#175 = CARTESIAN_POINT ( 'NONE',  ( -60.64999999999999858, 15.09999999999998899, -750.0000000000000000 ) ) ;
#176 = PRODUCT_DEFINITION ( 'UNKNOWN', '', #139, #100 ) ;
#177 = EDGE_LOOP ( 'NONE', ( #302, #196, #75, #43 ) ) ;
#178 = EDGE_LOOP ( 'NONE', ( #251, #230, #128, #146 ) ) ;
#179 = DIRECTION ( 'NONE',  ( -2.297646988048750896E-16, 1.000000000000000000, 0.000000000000000000 ) ) ;
#180 = ORIENTED_EDGE ( 'NONE', *, *, #78, .F. ) ;
#181 = LINE ( 'NONE', #187, #235 ) ;
#182 = ORIENTED_EDGE ( 'NONE', *, *, #136, .F. ) ;
#183 = DIRECTION ( 'NONE',  ( -1.000000000000000000, -5.700969169876833544E-16, 0.000000000000000000 ) ) ;
#184 = ADVANCED_FACE ( 'NONE', ( #197 ), #269, .T. ) ;
#185 = FACE_OUTER_BOUND ( 'NONE', #68, .T. ) ;
#186 = VECTOR ( 'NONE', #254, 1000.000000000000000 ) ;
#187 = CARTESIAN_POINT ( 'NONE',  ( 60.64999999999999858, 15.10000000000000497, -750.0000000000000000 ) ) ;
#188 = DIRECTION ( 'NONE',  ( -0.000000000000000000, 1.000000000000000000, -0.000000000000000000 ) ) ;
#189 = CARTESIAN_POINT ( 'NONE',  ( 0.000000000000000000, 0.000000000000000000, 0.000000000000000000 ) ) ;
#190 =( LENGTH_UNIT ( ) NAMED_UNIT ( * ) SI_UNIT ( .MILLI., .METRE. ) );
#191 = VECTOR ( 'NONE', #253, 1000.000000000000000 ) ;
#192 = CARTESIAN_POINT ( 'NONE',  ( 39.34999999999999432, -15.10000000000000142, 750.0000000000000000 ) ) ;
#193 = CARTESIAN_POINT ( 'NONE',  ( 60.64999999999999858, 15.10000000000000497, 750.0000000000000000 ) ) ;
#194 = ORIENTED_EDGE ( 'NONE', *, *, #39, .F. ) ;
#195 = AXIS2_PLACEMENT_3D ( 'NONE', #268, #35, #299 ) ;
#196 = ORIENTED_EDGE ( 'NONE', *, *, #215, .F. ) ;
#197 = FACE_OUTER_BOUND ( 'NONE', #121, .T. ) ;
#198 = CARTESIAN_POINT ( 'NONE',  ( -39.35000000000000142, 15.10000000000000142, 750.0000000000000000 ) ) ;
#199 = CARTESIAN_POINT ( 'NONE',  ( -39.35000000000000142, 15.10000000000000142, 750.0000000000000000 ) ) ;
#200 = ORIENTED_EDGE ( 'NONE', *, *, #25, .F. ) ;
#201 = CARTESIAN_POINT ( 'NONE',  ( -60.64999999999999858, 15.09999999999998899, 750.0000000000000000 ) ) ;
#202 = AXIS2_PLACEMENT_3D ( 'NONE', #270, #30, #89 ) ;
#203 = APPLICATION_CONTEXT ( 'automotive_design' ) ;
#204 = VERTEX_POINT ( 'NONE', #115 ) ;
#205 = DIRECTION ( 'NONE',  ( -0.000000000000000000, -1.000000000000000000, -0.000000000000000000 ) ) ;
#206 = ORIENTED_EDGE ( 'NONE', *, *, #283, .F. ) ;
#207 = FILL_AREA_STYLE_COLOUR ( '', #171 ) ;
#208 = ORIENTED_EDGE ( 'NONE', *, *, #108, .F. ) ;
#209 = DIRECTION ( 'NONE',  ( -1.144088030322708677E-16, 1.000000000000000000, 0.000000000000000000 ) ) ;
#210 = ADVANCED_FACE ( 'NONE', ( #34 ), #147, .F. ) ;
#211 = AXIS2_PLACEMENT_3D ( 'NONE', #189, #50, #288 ) ;
#212 = EDGE_LOOP ( 'NONE', ( #256, #200, #148, #17 ) ) ;
#213 = CARTESIAN_POINT ( 'NONE',  ( -60.64999999999999858, -25.90000000000000213, 750.0000000000000000 ) ) ;
#214 = STYLED_ITEM ( 'NONE', ( #126 ), #137 ) ;
#215 = EDGE_CURVE ( 'NONE', #220, #172, #173, .T. ) ;
#216 = AXIS2_PLACEMENT_3D ( 'NONE', #275, #41, #8 ) ;
#217 = PRESENTATION_LAYER_ASSIGNMENT (  '', '', ( #214 ) ) ;
#218 = EDGE_CURVE ( 'NONE', #152, #220, #252, .T. ) ;
#219 = VECTOR ( 'NONE', #67, 1000.000000000000000 ) ;
#220 = VERTEX_POINT ( 'NONE', #201 ) ;
#221 = PLANE ( 'NONE',  #195 ) ;
#222 = ORIENTED_EDGE ( 'NONE', *, *, #73, .F. ) ;
#223 = ADVANCED_FACE ( 'NONE', ( #318 ), #246, .F. ) ;
#224 = CARTESIAN_POINT ( 'NONE',  ( 39.34999999999999432, -15.10000000000000142, 750.0000000000000000 ) ) ;
#225 = CARTESIAN_POINT ( 'NONE',  ( -60.64999999999999858, 15.09999999999998899, -750.0000000000000000 ) ) ;
#226 = ORIENTED_EDGE ( 'NONE', *, *, #320, .T. ) ;
#227 = DIRECTION ( 'NONE',  ( -1.000000000000000000, -5.700969169876833544E-16, 0.000000000000000000 ) ) ;
#228 = ORIENTED_EDGE ( 'NONE', *, *, #162, .F. ) ;
#229 = DIRECTION ( 'NONE',  ( -1.000000000000000000, -3.257696668501046120E-16, 0.000000000000000000 ) ) ;
#230 = ORIENTED_EDGE ( 'NONE', *, *, #19, .F. ) ;
#231 = CARTESIAN_POINT ( 'NONE',  ( 39.34999999999999432, -15.10000000000000142, -750.0000000000000000 ) ) ;
#232 = EDGE_CURVE ( 'NONE', #40, #204, #138, .T. ) ;
#233 = VECTOR ( 'NONE', #120, 1000.000000000000000 ) ;
#234 = ORIENTED_EDGE ( 'NONE', *, *, #334, .T. ) ;
#235 = VECTOR ( 'NONE', #229, 1000.000000000000000 ) ;
#236 = UNCERTAINTY_MEASURE_WITH_UNIT (LENGTH_MEASURE( 1.000000000000000082E-05 ), #155, 'distance_accuracy_value', 'NONE');
#237 = ORIENTED_EDGE ( 'NONE', *, *, #110, .F. ) ;
#238 = SURFACE_STYLE_USAGE ( .BOTH. , #18 ) ;
#239 = DIRECTION ( 'NONE',  ( 1.000000000000000000, 0.000000000000000000, -0.000000000000000000 ) ) ;
#240 = EDGE_CURVE ( 'NONE', #172, #329, #245, .T. ) ;
#241 = CLOSED_SHELL ( 'NONE', ( #267, #244, #133, #116, #272, #210, #83, #223, #184, #103 ) ) ;
#242 = CARTESIAN_POINT ( 'NONE',  ( 39.34999999999999432, -15.10000000000000142, 750.0000000000000000 ) ) ;
#243 = DIRECTION ( 'NONE',  ( -0.000000000000000000, -0.000000000000000000, -1.000000000000000000 ) ) ;
#244 = ADVANCED_FACE ( 'NONE', ( #84 ), #170, .F. ) ;
#245 = LINE ( 'NONE', #225, #258 ) ;
#246 = PLANE ( 'NONE',  #312 ) ;
#247 = PLANE ( 'NONE',  #22 ) ;
#248 = VECTOR ( 'NONE', #31, 1000.000000000000000 ) ;
#249 =( NAMED_UNIT ( * ) SI_UNIT ( $, .STERADIAN. ) SOLID_ANGLE_UNIT ( ) );
#250 = LINE ( 'NONE', #11, #219 ) ;
#251 = ORIENTED_EDGE ( 'NONE', *, *, #240, .T. ) ;
#252 = LINE ( 'NONE', #198, #5 ) ;
#253 = DIRECTION ( 'NONE',  ( -0.000000000000000000, -0.000000000000000000, -1.000000000000000000 ) ) ;
#254 = DIRECTION ( 'NONE',  ( -0.000000000000000000, -0.000000000000000000, -1.000000000000000000 ) ) ;
#255 = DIRECTION ( 'NONE',  ( -1.000000000000000000, -4.408445936408658804E-17, 0.000000000000000000 ) ) ;
#256 = ORIENTED_EDGE ( 'NONE', *, *, #265, .T. ) ;
#257 = DIRECTION ( 'NONE',  ( 1.000000000000000000, 0.000000000000000000, -0.000000000000000000 ) ) ;
#258 = VECTOR ( 'NONE', #6, 1000.000000000000000 ) ;
#259 = ORIENTED_EDGE ( 'NONE', *, *, #162, .T. ) ;
#260 = SURFACE_STYLE_FILL_AREA ( #97 ) ;
#261 = ORIENTED_EDGE ( 'NONE', *, *, #25, .T. ) ;
#262 = CARTESIAN_POINT ( 'NONE',  ( 39.34999999999999432, -15.10000000000000142, -750.0000000000000000 ) ) ;
#263 = CARTESIAN_POINT ( 'NONE',  ( -60.64999999999999858, 15.09999999999998899, 750.0000000000000000 ) ) ;
#264 = CARTESIAN_POINT ( 'NONE',  ( -60.64999999999999858, -25.90000000000000213, -750.0000000000000000 ) ) ;
#265 = EDGE_CURVE ( 'NONE', #329, #95, #323, .T. ) ;
#266 = VECTOR ( 'NONE', #123, 1000.000000000000000 ) ;
#267 = ADVANCED_FACE ( 'NONE', ( #140 ), #221, .F. ) ;
#268 = CARTESIAN_POINT ( 'NONE',  ( -39.34999999999999432, -15.10000000000000320, 750.0000000000000000 ) ) ;
#269 = PLANE ( 'NONE',  #216 ) ;
#270 = CARTESIAN_POINT ( 'NONE',  ( -39.35000000000000142, 15.10000000000000142, 750.0000000000000000 ) ) ;
#271 = ORIENTED_EDGE ( 'NONE', *, *, #149, .T. ) ;
#272 = ADVANCED_FACE ( 'NONE', ( #143 ), #247, .F. ) ;
#273 = CARTESIAN_POINT ( 'NONE',  ( -60.64999999999999858, 15.09999999999998899, 750.0000000000000000 ) ) ;
#274 = ORIENTED_EDGE ( 'NONE', *, *, #334, .F. ) ;
#275 = CARTESIAN_POINT ( 'NONE',  ( 0.000000000000000000, 0.000000000000000000, 750.0000000000000000 ) ) ;
#276 = LINE ( 'NONE', #42, #186 ) ;
#277 = ORIENTED_EDGE ( 'NONE', *, *, #39, .T. ) ;
#278 = DIRECTION ( 'NONE',  ( 0.000000000000000000, 0.000000000000000000, 1.000000000000000000 ) ) ;
#279 = ORIENTED_EDGE ( 'NONE', *, *, #149, .F. ) ;
#280 = CARTESIAN_POINT ( 'NONE',  ( -39.35000000000000142, 15.10000000000000142, -750.0000000000000000 ) ) ;
#281 = ORIENTED_EDGE ( 'NONE', *, *, #141, .T. ) ;
#282 = PLANE ( 'NONE',  #62 ) ;
#283 = EDGE_CURVE ( 'NONE', #95, #86, #250, .T. ) ;
#284 = PLANE ( 'NONE',  #80 ) ;
#285 = LINE ( 'NONE', #280, #29 ) ;
#286 = MECHANICAL_DESIGN_GEOMETRIC_PRESENTATION_REPRESENTATION (  '', ( #134 ), #300 ) ;
#287 = APPLICATION_PROTOCOL_DEFINITION ( 'draft international standard', 'automotive_design', 1998, #203 ) ;
#288 = DIRECTION ( 'NONE',  ( 1.000000000000000000, 0.000000000000000000, 0.000000000000000000 ) ) ;
#289 = VECTOR ( 'NONE', #72, 1000.000000000000000 ) ;
#290 = APPLICATION_PROTOCOL_DEFINITION ( 'draft international standard', 'automotive_design', 1998, #165 ) ;
#291 = EDGE_CURVE ( 'NONE', #220, #40, #107, .T. ) ;
#292 = EDGE_LOOP ( 'NONE', ( #114, #274, #32, #271 ) ) ;
#293 = DIRECTION ( 'NONE',  ( 1.000000000000000000, 4.408445936408658804E-17, 0.000000000000000000 ) ) ;
#294 = ORIENTED_EDGE ( 'NONE', *, *, #81, .F. ) ;
#295 = ORIENTED_EDGE ( 'NONE', *, *, #232, .T. ) ;
#296 = EDGE_CURVE ( 'NONE', #306, #85, #314, .T. ) ;
#297 = VECTOR ( 'NONE', #255, 1000.000000000000000 ) ;
#298 = CARTESIAN_POINT ( 'NONE',  ( -39.34999999999999432, -15.10000000000000320, 750.0000000000000000 ) ) ;
#299 = DIRECTION ( 'NONE',  ( 2.297646988048750896E-16, -1.000000000000000000, 0.000000000000000000 ) ) ;
#300 =( GEOMETRIC_REPRESENTATION_CONTEXT ( 3 ) GLOBAL_UNCERTAINTY_ASSIGNED_CONTEXT ( ( #20 ) ) GLOBAL_UNIT_ASSIGNED_CONTEXT ( ( #28, #3, #163 ) ) REPRESENTATION_CONTEXT ( 'NONE', 'WORKASPACE' ) );
#301 = EDGE_LOOP ( 'NONE', ( #7, #319, #294, #259 ) ) ;
#302 = ORIENTED_EDGE ( 'NONE', *, *, #110, .T. ) ;
#303 = CARTESIAN_POINT ( 'NONE',  ( -39.35000000000000142, 15.10000000000000142, -750.0000000000000000 ) ) ;
#304 = EDGE_LOOP ( 'NONE', ( #47, #228, #93, #234 ) ) ;
#305 = CARTESIAN_POINT ( 'NONE',  ( 39.34999999999999432, -15.10000000000000142, 750.0000000000000000 ) ) ;
#306 = VERTEX_POINT ( 'NONE', #26 ) ;
#307 = DIRECTION ( 'NONE',  ( 1.000000000000000000, 0.000000000000000000, 0.000000000000000000 ) ) ;
#308 = AXIS2_PLACEMENT_3D ( 'NONE', #142, #321, #63 ) ;
#309 = DIRECTION ( 'NONE',  ( -0.000000000000000000, -0.000000000000000000, -1.000000000000000000 ) ) ;
#310 = CARTESIAN_POINT ( 'NONE',  ( 60.64999999999999858, 15.10000000000000497, 750.0000000000000000 ) ) ;
#311 = CARTESIAN_POINT ( 'NONE',  ( 0.000000000000000000, 0.000000000000000000, -750.0000000000000000 ) ) ;
#312 = AXIS2_PLACEMENT_3D ( 'NONE', #36, #316, #293 ) ;
#313 = MECHANICAL_DESIGN_GEOMETRIC_PRESENTATION_REPRESENTATION (  '', ( #214 ), #156 ) ;
#314 = LINE ( 'NONE', #2, #59 ) ;
#315 = LINE ( 'NONE', #242, #167 ) ;
#316 = DIRECTION ( 'NONE',  ( 4.408445936408658804E-17, -1.000000000000000000, 0.000000000000000000 ) ) ;
#317 = VERTEX_POINT ( 'NONE', #192 ) ;
#318 = FACE_OUTER_BOUND ( 'NONE', #304, .T. ) ;
#319 = ORIENTED_EDGE ( 'NONE', *, *, #168, .F. ) ;
#320 = EDGE_CURVE ( 'NONE', #204, #64, #132, .T. ) ;
#321 = DIRECTION ( 'NONE',  ( 3.257696668501045627E-16, -1.000000000000000000, 0.000000000000000000 ) ) ;
#322 = CARTESIAN_POINT ( 'NONE',  ( 39.34999999999999432, 15.09999999999999964, 750.0000000000000000 ) ) ;
#323 = LINE ( 'NONE', #113, #74 ) ;
#324 = ORIENTED_EDGE ( 'NONE', *, *, #265, .F. ) ;
#325 = DIRECTION ( 'NONE',  ( -0.000000000000000000, 0.000000000000000000, -1.000000000000000000 ) ) ;
#326 = LINE ( 'NONE', #96, #119 ) ;
#327 = CARTESIAN_POINT ( 'NONE',  ( 39.34999999999999432, -15.10000000000000142, -750.0000000000000000 ) ) ;
#328 = AXIS2_PLACEMENT_3D ( 'NONE', #77, #307, #99 ) ;
#329 = VERTEX_POINT ( 'NONE', #264 ) ;
#330 = PLANE ( 'NONE',  #328 ) ;
#331 = VECTOR ( 'NONE', #10, 1000.000000000000000 ) ;
#332 = ADVANCED_BREP_SHAPE_REPRESENTATION ( 'Standard 2 INOX-L 1500mm', ( #137, #211 ), #161 ) ;
#333 = VERTEX_POINT ( 'NONE', #109 ) ;
#334 = EDGE_CURVE ( 'NONE', #317, #118, #315, .T. ) ;
ENDSEC;
END-ISO-10303-21;
