ISO-10303-21;
HEADER;
FILE_DESCRIPTION (( 'STEP AP214' ),
    '1' );
FILE_NAME ('Standard 2 INOX-L-LIGHT 1500mm.STEP',
    '2022-04-08T13:50:26',
    ( '' ),
    ( '' ),
    'SwSTEP 2.0',
    'SolidWorks 2020',
    '' );
FILE_SCHEMA (( 'AUTOMOTIVE_DESIGN' ));
ENDSEC;

DATA;
#1 = EDGE_LOOP ( 'NONE', ( #282, #53, #318, #23, #189, #208, #251, #237 ) ) ;
#2 = CARTESIAN_POINT ( 'NONE',  ( -39.39999999999999858, -15.00000000000000355, 750.0000000000000000 ) ) ;
#3 = VECTOR ( 'NONE', #158, 1000.000000000000000 ) ;
#4 = LINE ( 'NONE', #28, #140 ) ;
#5 = DIRECTION ( 'NONE',  ( 1.734723475976807094E-16, -1.000000000000000000, 0.000000000000000000 ) ) ;
#6 = ADVANCED_FACE ( 'NONE', ( #216 ), #82, .T. ) ;
#7 = DIRECTION ( 'NONE',  ( -1.000000000000000000, 0.000000000000000000, 0.000000000000000000 ) ) ;
#8 = DIRECTION ( 'NONE',  ( 0.000000000000000000, -0.000000000000000000, -1.000000000000000000 ) ) ;
#9 = AXIS2_PLACEMENT_3D ( 'NONE', #191, #285, #220 ) ;
#10 = EDGE_CURVE ( 'NONE', #128, #37, #31, .T. ) ;
#11 = CARTESIAN_POINT ( 'NONE',  ( -39.39999999999999858, 15.00000000000000000, -750.0000000000000000 ) ) ;
#12 = LINE ( 'NONE', #195, #221 ) ;
#13 = APPLICATION_CONTEXT ( 'automotive_design' ) ;
#14 = AXIS2_PLACEMENT_3D ( 'NONE', #130, #330, #232 ) ;
#15 = EDGE_LOOP ( 'NONE', ( #240, #162, #233, #135 ) ) ;
#16 = CARTESIAN_POINT ( 'NONE',  ( -39.39999999999999858, 15.00000000000000000, 750.0000000000000000 ) ) ;
#17 = LINE ( 'NONE', #125, #100 ) ;
#18 = LINE ( 'NONE', #22, #74 ) ;
#19 = EDGE_CURVE ( 'NONE', #70, #108, #252, .T. ) ;
#20 = AXIS2_PLACEMENT_3D ( 'NONE', #2, #219, #193 ) ;
#21 = COLOUR_RGB ( '',0.7764705882352941346, 0.7568627450980391913, 0.7372549019607843590 ) ;
#22 = CARTESIAN_POINT ( 'NONE',  ( 54.39999999999999858, 15.00000000000000000, -750.0000000000000000 ) ) ;
#23 = ORIENTED_EDGE ( 'NONE', *, *, #291, .F. ) ;
#24 = CARTESIAN_POINT ( 'NONE',  ( -39.39999999999999858, -15.00000000000000355, 750.0000000000000000 ) ) ;
#25 = ORIENTED_EDGE ( 'NONE', *, *, #230, .F. ) ;
#26 = CARTESIAN_POINT ( 'NONE',  ( -39.39999999999999858, 15.00000000000000000, 750.0000000000000000 ) ) ;
#27 = ORIENTED_EDGE ( 'NONE', *, *, #255, .T. ) ;
#28 = CARTESIAN_POINT ( 'NONE',  ( 54.40000000000000568, -25.00000000000000000, 750.0000000000000000 ) ) ;
#29 = ORIENTED_EDGE ( 'NONE', *, *, #93, .T. ) ;
#30 = ORIENTED_EDGE ( 'NONE', *, *, #150, .T. ) ;
#31 = LINE ( 'NONE', #203, #143 ) ;
#32 = VECTOR ( 'NONE', #81, 1000.000000000000000 ) ;
#33 = APPLICATION_CONTEXT ( 'automotive_design' ) ;
#34 = LINE ( 'NONE', #175, #118 ) ;
#35 = ADVANCED_FACE ( 'NONE', ( #58 ), #313, .F. ) ;
#36 = CARTESIAN_POINT ( 'NONE',  ( 39.39999999999999858, -15.00000000000000178, 750.0000000000000000 ) ) ;
#37 = VERTEX_POINT ( 'NONE', #120 ) ;
#38 = LINE ( 'NONE', #11, #315 ) ;
#39 = ADVANCED_FACE ( 'NONE', ( #95 ), #246, .F. ) ;
#40 = VECTOR ( 'NONE', #324, 1000.000000000000000 ) ;
#41 = SURFACE_SIDE_STYLE ('',( #183 ) ) ;
#42 = VECTOR ( 'NONE', #67, 1000.000000000000000 ) ;
#43 = DIRECTION ( 'NONE',  ( 0.000000000000000000, 1.000000000000000000, 0.000000000000000000 ) ) ;
#44 = CARTESIAN_POINT ( 'NONE',  ( -39.39999999999999858, 15.00000000000000000, 750.0000000000000000 ) ) ;
#45 = VERTEX_POINT ( 'NONE', #113 ) ;
#46 =( NAMED_UNIT ( * ) PLANE_ANGLE_UNIT ( ) SI_UNIT ( $, .RADIAN. ) );
#47 =( GEOMETRIC_REPRESENTATION_CONTEXT ( 3 ) GLOBAL_UNCERTAINTY_ASSIGNED_CONTEXT ( ( #60 ) ) GLOBAL_UNIT_ASSIGNED_CONTEXT ( ( #280, #165, #239 ) ) REPRESENTATION_CONTEXT ( 'NONE', 'WORKASPACE' ) );
#48 = ORIENTED_EDGE ( 'NONE', *, *, #283, .F. ) ;
#49 = CARTESIAN_POINT ( 'NONE',  ( 54.39999999999999858, 15.00000000000000000, 750.0000000000000000 ) ) ;
#50 = VERTEX_POINT ( 'NONE', #272 ) ;
#51 = CARTESIAN_POINT ( 'NONE',  ( 39.39999999999999858, -15.00000000000000178, -750.0000000000000000 ) ) ;
#52 = ORIENTED_EDGE ( 'NONE', *, *, #213, .F. ) ;
#53 = ORIENTED_EDGE ( 'NONE', *, *, #90, .F. ) ;
#54 = FACE_OUTER_BOUND ( 'NONE', #157, .T. ) ;
#55 = EDGE_LOOP ( 'NONE', ( #27, #209, #304, #29 ) ) ;
#56 = LINE ( 'NONE', #145, #121 ) ;
#57 = PRESENTATION_STYLE_ASSIGNMENT (( #107 ) ) ;
#58 = FACE_OUTER_BOUND ( 'NONE', #164, .T. ) ;
#59 = VECTOR ( 'NONE', #303, 1000.000000000000000 ) ;
#60 = UNCERTAINTY_MEASURE_WITH_UNIT (LENGTH_MEASURE( 1.000000000000000082E-05 ), #280, 'distance_accuracy_value', 'NONE');
#61 = PLANE ( 'NONE',  #20 ) ;
#62 = EDGE_LOOP ( 'NONE', ( #266, #261, #301, #333 ) ) ;
#63 = ADVANCED_FACE ( 'NONE', ( #310 ), #66, .F. ) ;
#64 = DIRECTION ( 'NONE',  ( -1.000000000000000000, -1.040834085586084848E-15, 0.000000000000000000 ) ) ;
#65 = VERTEX_POINT ( 'NONE', #267 ) ;
#66 = PLANE ( 'NONE',  #196 ) ;
#67 = DIRECTION ( 'NONE',  ( 1.000000000000000000, 1.275531967630005245E-16, -0.000000000000000000 ) ) ;
#68 = ADVANCED_BREP_SHAPE_REPRESENTATION ( 'Standard 2 INOX-L-LIGHT 1500mm', ( #194, #302 ), #47 ) ;
#69 = LINE ( 'NONE', #26, #249 ) ;
#70 = VERTEX_POINT ( 'NONE', #293 ) ;
#71 = CARTESIAN_POINT ( 'NONE',  ( 39.39999999999999858, 15.00000000000000000, 750.0000000000000000 ) ) ;
#72 = ORIENTED_EDGE ( 'NONE', *, *, #243, .T. ) ;
#73 = LINE ( 'NONE', #276, #59 ) ;
#74 = VECTOR ( 'NONE', #105, 1000.000000000000000 ) ;
#75 = ORIENTED_EDGE ( 'NONE', *, *, #178, .T. ) ;
#76 = EDGE_CURVE ( 'NONE', #308, #128, #38, .T. ) ;
#77 = DIRECTION ( 'NONE',  ( 1.040834085586084651E-15, -1.000000000000000000, 0.000000000000000000 ) ) ;
#78 = ORIENTED_EDGE ( 'NONE', *, *, #227, .T. ) ;
#79 = ORIENTED_EDGE ( 'NONE', *, *, #295, .T. ) ;
#80 = PRODUCT_DEFINITION_CONTEXT ( 'detailed design', #33, 'design' ) ;
#81 = DIRECTION ( 'NONE',  ( -0.000000000000000000, -1.000000000000000000, -0.000000000000000000 ) ) ;
#82 = PLANE ( 'NONE',  #9 ) ;
#83 = PRESENTATION_LAYER_ASSIGNMENT (  '', '', ( #198 ) ) ;
#84 = ADVANCED_FACE ( 'NONE', ( #117 ), #317, .F. ) ;
#85 = DIRECTION ( 'NONE',  ( 1.000000000000000000, 0.000000000000000000, -0.000000000000000000 ) ) ;
#86 = CARTESIAN_POINT ( 'NONE',  ( -54.39999999999999147, 14.99999999999998401, 750.0000000000000000 ) ) ;
#87 = LINE ( 'NONE', #146, #139 ) ;
#88 = DIRECTION ( 'NONE',  ( 1.000000000000000000, 0.000000000000000000, 0.000000000000000000 ) ) ;
#89 = AXIS2_PLACEMENT_3D ( 'NONE', #96, #292, #136 ) ;
#90 = EDGE_CURVE ( 'NONE', #174, #65, #87, .T. ) ;
#91 = VECTOR ( 'NONE', #260, 1000.000000000000000 ) ;
#92 = CARTESIAN_POINT ( 'NONE',  ( 54.40000000000000568, -25.00000000000000000, 750.0000000000000000 ) ) ;
#93 = EDGE_CURVE ( 'NONE', #215, #65, #12, .T. ) ;
#94 = VECTOR ( 'NONE', #254, 1000.000000000000000 ) ;
#95 = FACE_OUTER_BOUND ( 'NONE', #242, .T. ) ;
#96 = CARTESIAN_POINT ( 'NONE',  ( 39.39999999999999858, -15.00000000000000178, 750.0000000000000000 ) ) ;
#97 = LINE ( 'NONE', #296, #42 ) ;
#98 = EDGE_CURVE ( 'NONE', #235, #106, #34, .T. ) ;
#99 = LINE ( 'NONE', #176, #197 ) ;
#100 = VECTOR ( 'NONE', #277, 1000.000000000000000 ) ;
#101 = PRESENTATION_STYLE_ASSIGNMENT (( #153 ) ) ;
#102 = ORIENTED_EDGE ( 'NONE', *, *, #259, .T. ) ;
#103 = CARTESIAN_POINT ( 'NONE',  ( -54.39999999999999858, -25.00000000000001421, 750.0000000000000000 ) ) ;
#104 = ORIENTED_EDGE ( 'NONE', *, *, #259, .F. ) ;
#105 = DIRECTION ( 'NONE',  ( -1.734723475976807094E-16, 1.000000000000000000, -0.000000000000000000 ) ) ;
#106 = VERTEX_POINT ( 'NONE', #228 ) ;
#107 = SURFACE_STYLE_USAGE ( .BOTH. , #161 ) ;
#108 = VERTEX_POINT ( 'NONE', #92 ) ;
#109 = DIRECTION ( 'NONE',  ( 1.000000000000000000, -1.734723475976807094E-16, 0.000000000000000000 ) ) ;
#110 = ADVANCED_FACE ( 'NONE', ( #323 ), #273, .F. ) ;
#111 = ORIENTED_EDGE ( 'NONE', *, *, #144, .T. ) ;
#112 = LINE ( 'NONE', #263, #91 ) ;
#113 = CARTESIAN_POINT ( 'NONE',  ( 39.39999999999999858, -15.00000000000000178, 750.0000000000000000 ) ) ;
#114 = DIRECTION ( 'NONE',  ( -0.000000000000000000, -0.000000000000000000, -1.000000000000000000 ) ) ;
#115 = DIRECTION ( 'NONE',  ( 0.000000000000000000, -0.000000000000000000, 1.000000000000000000 ) ) ;
#116 = DIRECTION ( 'NONE',  ( -0.000000000000000000, -0.000000000000000000, -1.000000000000000000 ) ) ;
#117 = FACE_OUTER_BOUND ( 'NONE', #15, .T. ) ;
#118 = VECTOR ( 'NONE', #123, 1000.000000000000000 ) ;
#119 =( GEOMETRIC_REPRESENTATION_CONTEXT ( 3 ) GLOBAL_UNCERTAINTY_ASSIGNED_CONTEXT ( ( #269 ) ) GLOBAL_UNIT_ASSIGNED_CONTEXT ( ( #167, #134, #309 ) ) REPRESENTATION_CONTEXT ( 'NONE', 'WORKASPACE' ) );
#120 = CARTESIAN_POINT ( 'NONE',  ( -54.39999999999999858, -25.00000000000001421, -750.0000000000000000 ) ) ;
#121 = VECTOR ( 'NONE', #166, 1000.000000000000000 ) ;
#122 = MECHANICAL_DESIGN_GEOMETRIC_PRESENTATION_REPRESENTATION (  '', ( #198 ), #119 ) ;
#123 = DIRECTION ( 'NONE',  ( -0.000000000000000000, -0.000000000000000000, -1.000000000000000000 ) ) ;
#124 = FILL_AREA_STYLE ('',( #256 ) ) ;
#125 = CARTESIAN_POINT ( 'NONE',  ( -54.39999999999999147, 14.99999999999998401, 750.0000000000000000 ) ) ;
#126 = CARTESIAN_POINT ( 'NONE',  ( 39.39999999999999858, -15.00000000000000178, 750.0000000000000000 ) ) ;
#127 = CARTESIAN_POINT ( 'NONE',  ( 39.39999999999999858, 15.00000000000000000, 750.0000000000000000 ) ) ;
#128 = VERTEX_POINT ( 'NONE', #244 ) ;
#129 = ADVANCED_FACE ( 'NONE', ( #199 ), #61, .F. ) ;
#130 = CARTESIAN_POINT ( 'NONE',  ( 54.40000000000000568, -25.00000000000000000, 750.0000000000000000 ) ) ;
#131 = ORIENTED_EDGE ( 'NONE', *, *, #295, .F. ) ;
#132 = MECHANICAL_DESIGN_GEOMETRIC_PRESENTATION_REPRESENTATION (  '', ( #218 ), #321 ) ;
#133 = ORIENTED_EDGE ( 'NONE', *, *, #291, .T. ) ;
#134 =( NAMED_UNIT ( * ) PLANE_ANGLE_UNIT ( ) SI_UNIT ( $, .RADIAN. ) );
#135 = ORIENTED_EDGE ( 'NONE', *, *, #283, .T. ) ;
#136 = DIRECTION ( 'NONE',  ( 0.000000000000000000, 0.000000000000000000, -1.000000000000000000 ) ) ;
#137 = FILL_AREA_STYLE_COLOUR ( '', #21 ) ;
#138 = FACE_OUTER_BOUND ( 'NONE', #62, .T. ) ;
#139 = VECTOR ( 'NONE', #223, 1000.000000000000000 ) ;
#140 = VECTOR ( 'NONE', #214, 1000.000000000000000 ) ;
#141 = LINE ( 'NONE', #311, #226 ) ;
#142 = CARTESIAN_POINT ( 'NONE',  ( 54.39999999999999858, 15.00000000000000000, 750.0000000000000000 ) ) ;
#143 = VECTOR ( 'NONE', #250, 1000.000000000000000 ) ;
#144 = EDGE_CURVE ( 'NONE', #45, #215, #171, .T. ) ;
#145 = CARTESIAN_POINT ( 'NONE',  ( -39.39999999999999858, -15.00000000000000355, 750.0000000000000000 ) ) ;
#146 = CARTESIAN_POINT ( 'NONE',  ( 39.39999999999999858, -15.00000000000000178, -750.0000000000000000 ) ) ;
#147 = PRODUCT_DEFINITION_SHAPE ( 'NONE', 'NONE',  #202 ) ;
#148 = AXIS2_PLACEMENT_3D ( 'NONE', #36, #319, #173 ) ;
#149 = VECTOR ( 'NONE', #114, 1000.000000000000000 ) ;
#150 = EDGE_CURVE ( 'NONE', #215, #180, #56, .T. ) ;
#151 = FACE_OUTER_BOUND ( 'NONE', #253, .T. ) ;
#152 = DIRECTION ( 'NONE',  ( -1.000000000000000000, -1.040834085586084848E-15, 0.000000000000000000 ) ) ;
#153 = SURFACE_STYLE_USAGE ( .BOTH. , #41 ) ;
#154 = ORIENTED_EDGE ( 'NONE', *, *, #227, .F. ) ;
#155 = LINE ( 'NONE', #44, #320 ) ;
#156 = ADVANCED_FACE ( 'NONE', ( #138 ), #328, .F. ) ;
#157 = EDGE_LOOP ( 'NONE', ( #172, #264, #104, #75 ) ) ;
#158 = DIRECTION ( 'NONE',  ( -0.000000000000000000, -0.000000000000000000, -1.000000000000000000 ) ) ;
#159 = EDGE_LOOP ( 'NONE', ( #322, #131, #154, #258 ) ) ;
#160 = ORIENTED_EDGE ( 'NONE', *, *, #305, .T. ) ;
#161 = SURFACE_SIDE_STYLE ('',( #245 ) ) ;
#162 = ORIENTED_EDGE ( 'NONE', *, *, #98, .F. ) ;
#163 = CARTESIAN_POINT ( 'NONE',  ( -54.39999999999999147, 14.99999999999998401, 750.0000000000000000 ) ) ;
#164 = EDGE_LOOP ( 'NONE', ( #299, #306, #187, #79 ) ) ;
#165 =( NAMED_UNIT ( * ) PLANE_ANGLE_UNIT ( ) SI_UNIT ( $, .RADIAN. ) );
#166 = DIRECTION ( 'NONE',  ( 0.000000000000000000, 1.000000000000000000, 0.000000000000000000 ) ) ;
#167 =( LENGTH_UNIT ( ) NAMED_UNIT ( * ) SI_UNIT ( .MILLI., .METRE. ) );
#168 = EDGE_CURVE ( 'NONE', #70, #37, #179, .T. ) ;
#169 = CARTESIAN_POINT ( 'NONE',  ( 0.000000000000000000, 0.000000000000000000, -750.0000000000000000 ) ) ;
#170 = PRODUCT_CONTEXT ( 'NONE', #13, 'mechanical' ) ;
#171 = LINE ( 'NONE', #271, #231 ) ;
#172 = ORIENTED_EDGE ( 'NONE', *, *, #10, .T. ) ;
#173 = DIRECTION ( 'NONE',  ( 1.000000000000000000, 2.201425730935034281E-17, 0.000000000000000000 ) ) ;
#174 = VERTEX_POINT ( 'NONE', #326 ) ;
#175 = CARTESIAN_POINT ( 'NONE',  ( 54.39999999999999858, 15.00000000000000000, 750.0000000000000000 ) ) ;
#176 = CARTESIAN_POINT ( 'NONE',  ( -39.39999999999999858, -15.00000000000000355, -750.0000000000000000 ) ) ;
#177 = ORIENTED_EDGE ( 'NONE', *, *, #19, .T. ) ;
#178 = EDGE_CURVE ( 'NONE', #327, #128, #73, .T. ) ;
#179 = LINE ( 'NONE', #103, #40 ) ;
#180 = VERTEX_POINT ( 'NONE', #16 ) ;
#181 = CLOSED_SHELL ( 'NONE', ( #129, #156, #312, #224, #84, #39, #110, #35, #6, #63 ) ) ;
#182 = COLOUR_RGB ( '',0.7764705882352941346, 0.7568627450980391913, 0.7372549019607843590 ) ;
#183 = SURFACE_STYLE_FILL_AREA ( #124 ) ;
#184 = VECTOR ( 'NONE', #211, 1000.000000000000000 ) ;
#185 = VERTEX_POINT ( 'NONE', #186 ) ;
#186 = CARTESIAN_POINT ( 'NONE',  ( 39.39999999999999858, 15.00000000000000000, -750.0000000000000000 ) ) ;
#187 = ORIENTED_EDGE ( 'NONE', *, *, #144, .F. ) ;
#188 = LINE ( 'NONE', #51, #32 ) ;
#189 = ORIENTED_EDGE ( 'NONE', *, *, #205, .F. ) ;
#190 = AXIS2_PLACEMENT_3D ( 'NONE', #204, #77, #325 ) ;
#191 = CARTESIAN_POINT ( 'NONE',  ( 0.000000000000000000, 0.000000000000000000, 750.0000000000000000 ) ) ;
#192 = EDGE_CURVE ( 'NONE', #180, #327, #155, .T. ) ;
#193 = DIRECTION ( 'NONE',  ( 0.000000000000000000, 0.000000000000000000, 1.000000000000000000 ) ) ;
#194 = MANIFOLD_SOLID_BREP ( 'Boss-Extrude1', #181 ) ;
#195 = CARTESIAN_POINT ( 'NONE',  ( -39.39999999999999858, -15.00000000000000355, 750.0000000000000000 ) ) ;
#196 = AXIS2_PLACEMENT_3D ( 'NONE', #169, #115, #85 ) ;
#197 = VECTOR ( 'NONE', #43, 1000.000000000000000 ) ;
#198 = STYLED_ITEM ( 'NONE', ( #57 ), #68 ) ;
#199 = FACE_OUTER_BOUND ( 'NONE', #55, .T. ) ;
#200 = AXIS2_PLACEMENT_3D ( 'NONE', #142, #201, #8 ) ;
#201 = DIRECTION ( 'NONE',  ( 0.000000000000000000, -1.000000000000000000, 0.000000000000000000 ) ) ;
#202 = PRODUCT_DEFINITION ( 'UNKNOWN', '', #270, #80 ) ;
#203 = CARTESIAN_POINT ( 'NONE',  ( -54.39999999999999147, 14.99999999999998401, -750.0000000000000000 ) ) ;
#204 = CARTESIAN_POINT ( 'NONE',  ( -39.39999999999999858, 15.00000000000000000, 750.0000000000000000 ) ) ;
#205 = EDGE_CURVE ( 'NONE', #50, #106, #18, .T. ) ;
#206 = LINE ( 'NONE', #71, #3 ) ;
#207 = PRODUCT ( 'Standard 2 INOX-L-LIGHT 1500mm', 'Standard 2 INOX-L-LIGHT 1500mm', '', ( #170 ) ) ;
#208 = ORIENTED_EDGE ( 'NONE', *, *, #243, .F. ) ;
#209 = ORIENTED_EDGE ( 'NONE', *, *, #274, .F. ) ;
#210 = VECTOR ( 'NONE', #225, 1000.000000000000000 ) ;
#211 = DIRECTION ( 'NONE',  ( -1.000000000000000000, 0.000000000000000000, 0.000000000000000000 ) ) ;
#212 = VERTEX_POINT ( 'NONE', #127 ) ;
#213 = EDGE_CURVE ( 'NONE', #235, #212, #236, .T. ) ;
#214 = DIRECTION ( 'NONE',  ( -0.000000000000000000, -0.000000000000000000, -1.000000000000000000 ) ) ;
#215 = VERTEX_POINT ( 'NONE', #24 ) ;
#216 = FACE_OUTER_BOUND ( 'NONE', #281, .T. ) ;
#217 = CARTESIAN_POINT ( 'NONE',  ( -39.39999999999999858, 15.00000000000000000, -750.0000000000000000 ) ) ;
#218 = STYLED_ITEM ( 'NONE', ( #101 ), #194 ) ;
#219 = DIRECTION ( 'NONE',  ( -1.000000000000000000, 0.000000000000000000, 0.000000000000000000 ) ) ;
#220 = DIRECTION ( 'NONE',  ( 1.000000000000000000, 0.000000000000000000, -0.000000000000000000 ) ) ;
#221 = VECTOR ( 'NONE', #268, 1000.000000000000000 ) ;
#222 = APPLICATION_PROTOCOL_DEFINITION ( 'draft international standard', 'automotive_design', 1998, #33 ) ;
#223 = DIRECTION ( 'NONE',  ( -1.000000000000000000, -2.201425730935034589E-17, 0.000000000000000000 ) ) ;
#224 = ADVANCED_FACE ( 'NONE', ( #151 ), #234, .F. ) ;
#225 = DIRECTION ( 'NONE',  ( 1.000000000000000000, 1.275531967630005245E-16, -0.000000000000000000 ) ) ;
#226 = VECTOR ( 'NONE', #7, 1000.000000000000000 ) ;
#227 = EDGE_CURVE ( 'NONE', #212, #45, #300, .T. ) ;
#228 = CARTESIAN_POINT ( 'NONE',  ( 54.39999999999999858, 15.00000000000000000, -750.0000000000000000 ) ) ;
#229 =( LENGTH_UNIT ( ) NAMED_UNIT ( * ) SI_UNIT ( .MILLI., .METRE. ) );
#230 = EDGE_CURVE ( 'NONE', #212, #185, #206, .T. ) ;
#231 = VECTOR ( 'NONE', #287, 1000.000000000000000 ) ;
#232 = DIRECTION ( 'NONE',  ( -1.000000000000000000, -1.275531967630005245E-16, 0.000000000000000000 ) ) ;
#233 = ORIENTED_EDGE ( 'NONE', *, *, #305, .F. ) ;
#234 = PLANE ( 'NONE',  #14 ) ;
#235 = VERTEX_POINT ( 'NONE', #297 ) ;
#236 = LINE ( 'NONE', #49, #184 ) ;
#237 = ORIENTED_EDGE ( 'NONE', *, *, #76, .F. ) ;
#238 = PRESENTATION_LAYER_ASSIGNMENT (  '', '', ( #218 ) ) ;
#239 =( NAMED_UNIT ( * ) SI_UNIT ( $, .STERADIAN. ) SOLID_ANGLE_UNIT ( ) );
#240 = ORIENTED_EDGE ( 'NONE', *, *, #205, .T. ) ;
#241 = PLANE ( 'NONE',  #332 ) ;
#242 = EDGE_LOOP ( 'NONE', ( #133, #25, #52, #331 ) ) ;
#243 = EDGE_CURVE ( 'NONE', #37, #50, #97, .T. ) ;
#244 = CARTESIAN_POINT ( 'NONE',  ( -54.39999999999999147, 14.99999999999998401, -750.0000000000000000 ) ) ;
#245 = SURFACE_STYLE_FILL_AREA ( #265 ) ;
#246 = PLANE ( 'NONE',  #200 ) ;
#247 = CARTESIAN_POINT ( 'NONE',  ( 0.000000000000000000, 0.000000000000000000, 0.000000000000000000 ) ) ;
#248 = CARTESIAN_POINT ( 'NONE',  ( 54.40000000000000568, -25.00000000000000000, 750.0000000000000000 ) ) ;
#249 = VECTOR ( 'NONE', #116, 1000.000000000000000 ) ;
#250 = DIRECTION ( 'NONE',  ( -1.734723475976807094E-16, -1.000000000000000000, 0.000000000000000000 ) ) ;
#251 = ORIENTED_EDGE ( 'NONE', *, *, #10, .F. ) ;
#252 = LINE ( 'NONE', #248, #210 ) ;
#253 = EDGE_LOOP ( 'NONE', ( #72, #48, #257, #278 ) ) ;
#254 = DIRECTION ( 'NONE',  ( -0.000000000000000000, -1.000000000000000000, -0.000000000000000000 ) ) ;
#255 = EDGE_CURVE ( 'NONE', #65, #308, #99, .T. ) ;
#256 = FILL_AREA_STYLE_COLOUR ( '', #182 ) ;
#257 = ORIENTED_EDGE ( 'NONE', *, *, #19, .F. ) ;
#258 = ORIENTED_EDGE ( 'NONE', *, *, #230, .T. ) ;
#259 = EDGE_CURVE ( 'NONE', #327, #70, #17, .T. ) ;
#260 = DIRECTION ( 'NONE',  ( -1.734723475976807094E-16, 1.000000000000000000, -0.000000000000000000 ) ) ;
#261 = ORIENTED_EDGE ( 'NONE', *, *, #178, .F. ) ;
#262 = AXIS2_PLACEMENT_3D ( 'NONE', #294, #289, #5 ) ;
#263 = CARTESIAN_POINT ( 'NONE',  ( 54.39999999999999858, 15.00000000000000000, 750.0000000000000000 ) ) ;
#264 = ORIENTED_EDGE ( 'NONE', *, *, #168, .F. ) ;
#265 = FILL_AREA_STYLE ('',( #137 ) ) ;
#266 = ORIENTED_EDGE ( 'NONE', *, *, #76, .T. ) ;
#267 = CARTESIAN_POINT ( 'NONE',  ( -39.39999999999999858, -15.00000000000000355, -750.0000000000000000 ) ) ;
#268 = DIRECTION ( 'NONE',  ( -0.000000000000000000, -0.000000000000000000, -1.000000000000000000 ) ) ;
#269 = UNCERTAINTY_MEASURE_WITH_UNIT (LENGTH_MEASURE( 1.000000000000000082E-05 ), #167, 'distance_accuracy_value', 'NONE');
#270 = PRODUCT_DEFINITION_FORMATION_WITH_SPECIFIED_SOURCE ( 'ANY', '', #207, .NOT_KNOWN. ) ;
#271 = CARTESIAN_POINT ( 'NONE',  ( 39.39999999999999858, -15.00000000000000178, 750.0000000000000000 ) ) ;
#272 = CARTESIAN_POINT ( 'NONE',  ( 54.40000000000000568, -25.00000000000000000, -750.0000000000000000 ) ) ;
#273 = PLANE ( 'NONE',  #89 ) ;
#274 = EDGE_CURVE ( 'NONE', #180, #308, #69, .T. ) ;
#275 = EDGE_CURVE ( 'NONE', #185, #174, #188, .T. ) ;
#276 = CARTESIAN_POINT ( 'NONE',  ( -54.39999999999999147, 14.99999999999998401, 750.0000000000000000 ) ) ;
#277 = DIRECTION ( 'NONE',  ( -1.734723475976807094E-16, -1.000000000000000000, 0.000000000000000000 ) ) ;
#278 = ORIENTED_EDGE ( 'NONE', *, *, #168, .T. ) ;
#279 = ORIENTED_EDGE ( 'NONE', *, *, #213, .T. ) ;
#280 =( LENGTH_UNIT ( ) NAMED_UNIT ( * ) SI_UNIT ( .MILLI., .METRE. ) );
#281 = EDGE_LOOP ( 'NONE', ( #30, #329, #102, #177, #160, #279, #78, #111 ) ) ;
#282 = ORIENTED_EDGE ( 'NONE', *, *, #255, .F. ) ;
#283 = EDGE_CURVE ( 'NONE', #108, #50, #4, .T. ) ;
#284 = CARTESIAN_POINT ( 'NONE',  ( 39.39999999999999858, -15.00000000000000178, 750.0000000000000000 ) ) ;
#285 = DIRECTION ( 'NONE',  ( 0.000000000000000000, -0.000000000000000000, 1.000000000000000000 ) ) ;
#286 = LINE ( 'NONE', #284, #149 ) ;
#287 = DIRECTION ( 'NONE',  ( -1.000000000000000000, -2.201425730935034589E-17, 0.000000000000000000 ) ) ;
#288 = APPLICATION_PROTOCOL_DEFINITION ( 'draft international standard', 'automotive_design', 1998, #13 ) ;
#289 = DIRECTION ( 'NONE',  ( -1.000000000000000000, -1.734723475976807094E-16, 0.000000000000000000 ) ) ;
#290 = UNCERTAINTY_MEASURE_WITH_UNIT (LENGTH_MEASURE( 1.000000000000000082E-05 ), #229, 'distance_accuracy_value', 'NONE');
#291 = EDGE_CURVE ( 'NONE', #106, #185, #141, .T. ) ;
#292 = DIRECTION ( 'NONE',  ( 1.000000000000000000, 0.000000000000000000, 0.000000000000000000 ) ) ;
#293 = CARTESIAN_POINT ( 'NONE',  ( -54.39999999999999858, -25.00000000000001421, 750.0000000000000000 ) ) ;
#294 = CARTESIAN_POINT ( 'NONE',  ( 54.39999999999999858, 15.00000000000000000, 750.0000000000000000 ) ) ;
#295 = EDGE_CURVE ( 'NONE', #45, #174, #286, .T. ) ;
#296 = CARTESIAN_POINT ( 'NONE',  ( 54.40000000000000568, -25.00000000000000000, -750.0000000000000000 ) ) ;
#297 = CARTESIAN_POINT ( 'NONE',  ( 54.39999999999999858, 15.00000000000000000, 750.0000000000000000 ) ) ;
#298 =( NAMED_UNIT ( * ) SI_UNIT ( $, .STERADIAN. ) SOLID_ANGLE_UNIT ( ) );
#299 = ORIENTED_EDGE ( 'NONE', *, *, #90, .T. ) ;
#300 = LINE ( 'NONE', #126, #94 ) ;
#301 = ORIENTED_EDGE ( 'NONE', *, *, #192, .F. ) ;
#302 = AXIS2_PLACEMENT_3D ( 'NONE', #247, #314, #88 ) ;
#303 = DIRECTION ( 'NONE',  ( -0.000000000000000000, -0.000000000000000000, -1.000000000000000000 ) ) ;
#304 = ORIENTED_EDGE ( 'NONE', *, *, #150, .F. ) ;
#305 = EDGE_CURVE ( 'NONE', #108, #235, #112, .T. ) ;
#306 = ORIENTED_EDGE ( 'NONE', *, *, #93, .F. ) ;
#307 = DIRECTION ( 'NONE',  ( 1.734723475976807094E-16, 1.000000000000000000, 0.000000000000000000 ) ) ;
#308 = VERTEX_POINT ( 'NONE', #217 ) ;
#309 =( NAMED_UNIT ( * ) SI_UNIT ( $, .STERADIAN. ) SOLID_ANGLE_UNIT ( ) );
#310 = FACE_OUTER_BOUND ( 'NONE', #1, .T. ) ;
#311 = CARTESIAN_POINT ( 'NONE',  ( 54.39999999999999858, 15.00000000000000000, -750.0000000000000000 ) ) ;
#312 = ADVANCED_FACE ( 'NONE', ( #54 ), #241, .F. ) ;
#313 = PLANE ( 'NONE',  #148 ) ;
#314 = DIRECTION ( 'NONE',  ( 0.000000000000000000, 0.000000000000000000, 1.000000000000000000 ) ) ;
#315 = VECTOR ( 'NONE', #64, 1000.000000000000000 ) ;
#316 = SHAPE_DEFINITION_REPRESENTATION ( #147, #68 ) ;
#317 = PLANE ( 'NONE',  #262 ) ;
#318 = ORIENTED_EDGE ( 'NONE', *, *, #275, .F. ) ;
#319 = DIRECTION ( 'NONE',  ( 2.201425730935034281E-17, -1.000000000000000000, 0.000000000000000000 ) ) ;
#320 = VECTOR ( 'NONE', #152, 1000.000000000000000 ) ;
#321 =( GEOMETRIC_REPRESENTATION_CONTEXT ( 3 ) GLOBAL_UNCERTAINTY_ASSIGNED_CONTEXT ( ( #290 ) ) GLOBAL_UNIT_ASSIGNED_CONTEXT ( ( #229, #46, #298 ) ) REPRESENTATION_CONTEXT ( 'NONE', 'WORKASPACE' ) );
#322 = ORIENTED_EDGE ( 'NONE', *, *, #275, .T. ) ;
#323 = FACE_OUTER_BOUND ( 'NONE', #159, .T. ) ;
#324 = DIRECTION ( 'NONE',  ( -0.000000000000000000, -0.000000000000000000, -1.000000000000000000 ) ) ;
#325 = DIRECTION ( 'NONE',  ( 1.000000000000000000, 1.040834085586084651E-15, 0.000000000000000000 ) ) ;
#326 = CARTESIAN_POINT ( 'NONE',  ( 39.39999999999999858, -15.00000000000000178, -750.0000000000000000 ) ) ;
#327 = VERTEX_POINT ( 'NONE', #163 ) ;
#328 = PLANE ( 'NONE',  #190 ) ;
#329 = ORIENTED_EDGE ( 'NONE', *, *, #192, .T. ) ;
#330 = DIRECTION ( 'NONE',  ( -1.275531967630005245E-16, 1.000000000000000000, 0.000000000000000000 ) ) ;
#331 = ORIENTED_EDGE ( 'NONE', *, *, #98, .T. ) ;
#332 = AXIS2_PLACEMENT_3D ( 'NONE', #86, #109, #307 ) ;
#333 = ORIENTED_EDGE ( 'NONE', *, *, #274, .T. ) ;
#334 = PRODUCT_RELATED_PRODUCT_CATEGORY ( 'part', '', ( #207 ) ) ;
ENDSEC;
END-ISO-10303-21;
