ISO-10303-21;
HEADER;
FILE_DESCRIPTION(('STEP AP214'),'1');
FILE_NAME('standard_r_1000.stp','2021-08-24T13:56:09',('TraceParts'),('TraceParts S.A.'),'Spatial InterOp 3D',' ',' ');
FILE_SCHEMA(('AUTOMOTIVE_DESIGN { 1 0 10303 214 1 1 1 1 }'));
ENDSEC;
DATA;
#1=PRODUCT_DEFINITION_CONTEXT('',#9,'design');
#2=APPLICATION_PROTOCOL_DEFINITION('INTERNATIONAL STANDARD','automotive_design',1994,#9);
#3=PRODUCT_CATEGORY_RELATIONSHIP('NONE','NONE',#10,#11);
#4=SHAPE_DEFINITION_REPRESENTATION(#12,#13);
#5= (GEOMETRIC_REPRESENTATION_CONTEXT(3)GLOBAL_UNCERTAINTY_ASSIGNED_CONTEXT((#16))GLOBAL_UNIT_ASSIGNED_CONTEXT((#18,#19,#20))REPRESENTATION_CONTEXT('NONE','WORKSPACE'));
#9=APPLICATION_CONTEXT(' ');
#10=PRODUCT_CATEGORY('part','NONE');
#11=PRODUCT_RELATED_PRODUCT_CATEGORY('detail',' ',(#22));
#12=PRODUCT_DEFINITION_SHAPE('NONE','NONE',#23);
#13=ADVANCED_BREP_SHAPE_REPRESENTATION('standard_r_1000',(#24,#25),#5);
#16=UNCERTAINTY_MEASURE_WITH_UNIT(LENGTH_MEASURE(1.0E-06),#18,'','');
#18= (CONVERSION_BASED_UNIT('MILLIMETRE',#28)LENGTH_UNIT()NAMED_UNIT(#31));
#19= (NAMED_UNIT(#33)PLANE_ANGLE_UNIT()SI_UNIT($,.RADIAN.));
#20= (NAMED_UNIT(#33)SOLID_ANGLE_UNIT()SI_UNIT($,.STERADIAN.));
#22=PRODUCT('standard_r_1000','standard_r_1000','PART-standard_r_1000-DESC',(#39));
#23=PRODUCT_DEFINITION('','NONE',#40,#1);
#24=MANIFOLD_SOLID_BREP('standard_r_1000',#41);
#25=AXIS2_PLACEMENT_3D('',#42,#43,#44);
#28=LENGTH_MEASURE_WITH_UNIT(LENGTH_MEASURE(1.0),#45);
#31=DIMENSIONAL_EXPONENTS(1.0,0.0,0.0,0.0,0.0,0.0,0.0);
#33=DIMENSIONAL_EXPONENTS(0.0,0.0,0.0,0.0,0.0,0.0,0.0);
#39=PRODUCT_CONTEXT('',#9,'mechanical');
#40=PRODUCT_DEFINITION_FORMATION_WITH_SPECIFIED_SOURCE(' ','NONE',#22,.NOT_KNOWN.);
#41=CLOSED_SHELL('',(#46,#47,#48,#49,#50,#51,#52,#53,#54,#55,#56,#57,#58,#59));
#42=CARTESIAN_POINT('',(0.0,0.0,0.0));
#43=DIRECTION('',(0.0,0.0,1.0));
#44=DIRECTION('',(1.0,0.0,0.0));
#45= (NAMED_UNIT(#31)LENGTH_UNIT()SI_UNIT(.MILLI.,.METRE.));
#46=ADVANCED_FACE('',(#61),#62,.T.);
#47=ADVANCED_FACE('',(#63),#64,.F.);
#48=ADVANCED_FACE('',(#65),#66,.F.);
#49=ADVANCED_FACE('',(#67),#68,.T.);
#50=ADVANCED_FACE('',(#69),#70,.T.);
#51=ADVANCED_FACE('',(#71),#72,.T.);
#52=ADVANCED_FACE('',(#73),#74,.T.);
#53=ADVANCED_FACE('',(#75),#76,.F.);
#54=ADVANCED_FACE('',(#77),#78,.F.);
#55=ADVANCED_FACE('',(#79),#80,.T.);
#56=ADVANCED_FACE('',(#81),#82,.F.);
#57=ADVANCED_FACE('',(#83),#84,.F.);
#58=ADVANCED_FACE('',(#85),#86,.F.);
#59=ADVANCED_FACE('',(#87),#88,.F.);
#61=FACE_OUTER_BOUND('',#89,.T.);
#62=CYLINDRICAL_SURFACE('',#90,14.0);
#63=FACE_OUTER_BOUND('',#91,.T.);
#64=PLANE('',#92);
#65=FACE_OUTER_BOUND('',#93,.T.);
#66=PLANE('',#94);
#67=FACE_OUTER_BOUND('',#95,.T.);
#68=CYLINDRICAL_SURFACE('',#96,14.0);
#69=FACE_OUTER_BOUND('',#97,.T.);
#70=PLANE('',#98);
#71=FACE_OUTER_BOUND('',#99,.T.);
#72=PLANE('',#100);
#73=FACE_OUTER_BOUND('',#101,.T.);
#74=PLANE('',#102);
#75=FACE_OUTER_BOUND('',#103,.T.);
#76=CYLINDRICAL_SURFACE('',#104,7.0);
#77=FACE_OUTER_BOUND('',#105,.T.);
#78=CYLINDRICAL_SURFACE('',#106,7.0);
#79=FACE_OUTER_BOUND('',#107,.T.);
#80=PLANE('',#108);
#81=FACE_OUTER_BOUND('',#109,.T.);
#82=PLANE('',#110);
#83=FACE_OUTER_BOUND('',#111,.T.);
#84=PLANE('',#112);
#85=FACE_OUTER_BOUND('',#113,.T.);
#86=PLANE('',#114);
#87=FACE_OUTER_BOUND('',#115,.T.);
#88=PLANE('',#116);
#89=EDGE_LOOP('',(#117,#118,#119,#120));
#90=AXIS2_PLACEMENT_3D('',#121,#122,#123);
#91=EDGE_LOOP('',(#124,#125,#126,#127,#128,#129,#130,#131,#132,#133,#134,#135));
#92=AXIS2_PLACEMENT_3D('',#136,#137,#138);
#93=EDGE_LOOP('',(#139,#140,#141,#142));
#94=AXIS2_PLACEMENT_3D('',#143,#144,#145);
#95=EDGE_LOOP('',(#146,#147,#148,#149));
#96=AXIS2_PLACEMENT_3D('',#150,#151,#152);
#97=EDGE_LOOP('',(#153,#154,#155,#156,#157,#158,#159,#160,#161,#162,#163,#164));
#98=AXIS2_PLACEMENT_3D('',#165,#166,#167);
#99=EDGE_LOOP('',(#168,#169,#170,#171));
#100=AXIS2_PLACEMENT_3D('',#172,#173,#174);
#101=EDGE_LOOP('',(#175,#176,#177,#178));
#102=AXIS2_PLACEMENT_3D('',#179,#180,#181);
#103=EDGE_LOOP('',(#182,#183,#184,#185));
#104=AXIS2_PLACEMENT_3D('',#186,#187,#188);
#105=EDGE_LOOP('',(#189,#190,#191,#192));
#106=AXIS2_PLACEMENT_3D('',#193,#194,#195);
#107=EDGE_LOOP('',(#196,#197,#198,#199));
#108=AXIS2_PLACEMENT_3D('',#200,#201,#202);
#109=EDGE_LOOP('',(#203,#204,#205,#206));
#110=AXIS2_PLACEMENT_3D('',#207,#208,#209);
#111=EDGE_LOOP('',(#210,#211,#212,#213));
#112=AXIS2_PLACEMENT_3D('',#214,#215,#216);
#113=EDGE_LOOP('',(#217,#218,#219,#220));
#114=AXIS2_PLACEMENT_3D('',#221,#222,#223);
#115=EDGE_LOOP('',(#224,#225,#226,#227));
#116=AXIS2_PLACEMENT_3D('',#228,#229,#230);
#117=ORIENTED_EDGE('',*,*,#231,.F.);
#118=ORIENTED_EDGE('',*,*,#232,.T.);
#119=ORIENTED_EDGE('',*,*,#233,.F.);
#120=ORIENTED_EDGE('',*,*,#234,.F.);
#121=CARTESIAN_POINT('',(57.0,14.0,0.0));
#122=DIRECTION('',(0.0,0.0,1.0));
#123=DIRECTION('',(-1.83690953073357E-16,-1.0,0.0));
#124=ORIENTED_EDGE('',*,*,#233,.T.);
#125=ORIENTED_EDGE('',*,*,#235,.T.);
#126=ORIENTED_EDGE('',*,*,#236,.T.);
#127=ORIENTED_EDGE('',*,*,#237,.T.);
#128=ORIENTED_EDGE('',*,*,#238,.T.);
#129=ORIENTED_EDGE('',*,*,#239,.T.);
#130=ORIENTED_EDGE('',*,*,#240,.T.);
#131=ORIENTED_EDGE('',*,*,#241,.T.);
#132=ORIENTED_EDGE('',*,*,#242,.T.);
#133=ORIENTED_EDGE('',*,*,#243,.T.);
#134=ORIENTED_EDGE('',*,*,#244,.T.);
#135=ORIENTED_EDGE('',*,*,#245,.T.);
#136=CARTESIAN_POINT('',(0.0,28.0,0.0));
#137=DIRECTION('',(0.0,0.0,1.0));
#138=DIRECTION('',(1.0,0.0,0.0));
#139=ORIENTED_EDGE('',*,*,#232,.F.);
#140=ORIENTED_EDGE('',*,*,#246,.F.);
#141=ORIENTED_EDGE('',*,*,#247,.T.);
#142=ORIENTED_EDGE('',*,*,#235,.F.);
#143=CARTESIAN_POINT('',(0.0,0.0,500.0));
#144=DIRECTION('',(0.0,1.0,0.0));
#145=DIRECTION('',(0.0,0.0,1.0));
#146=ORIENTED_EDGE('',*,*,#248,.F.);
#147=ORIENTED_EDGE('',*,*,#249,.T.);
#148=ORIENTED_EDGE('',*,*,#236,.F.);
#149=ORIENTED_EDGE('',*,*,#247,.F.);
#150=CARTESIAN_POINT('',(-57.0,14.0,0.0));
#151=DIRECTION('',(0.0,0.0,1.0));
#152=DIRECTION('',(-1.0,1.22460635382238E-16,0.0));
#153=ORIENTED_EDGE('',*,*,#231,.T.);
#154=ORIENTED_EDGE('',*,*,#250,.T.);
#155=ORIENTED_EDGE('',*,*,#251,.T.);
#156=ORIENTED_EDGE('',*,*,#252,.T.);
#157=ORIENTED_EDGE('',*,*,#253,.T.);
#158=ORIENTED_EDGE('',*,*,#254,.T.);
#159=ORIENTED_EDGE('',*,*,#255,.T.);
#160=ORIENTED_EDGE('',*,*,#256,.T.);
#161=ORIENTED_EDGE('',*,*,#257,.T.);
#162=ORIENTED_EDGE('',*,*,#258,.T.);
#163=ORIENTED_EDGE('',*,*,#248,.T.);
#164=ORIENTED_EDGE('',*,*,#246,.T.);
#165=CARTESIAN_POINT('',(0.0,28.0,1000.0));
#166=DIRECTION('',(0.0,0.0,1.0));
#167=DIRECTION('',(1.0,0.0,0.0));
#168=ORIENTED_EDGE('',*,*,#254,.F.);
#169=ORIENTED_EDGE('',*,*,#259,.T.);
#170=ORIENTED_EDGE('',*,*,#241,.F.);
#171=ORIENTED_EDGE('',*,*,#260,.F.);
#172=CARTESIAN_POINT('',(0.0,8.0,500.0));
#173=DIRECTION('',(0.0,1.0,0.0));
#174=DIRECTION('',(0.0,0.0,1.0));
#175=ORIENTED_EDGE('',*,*,#256,.F.);
#176=ORIENTED_EDGE('',*,*,#261,.T.);
#177=ORIENTED_EDGE('',*,*,#239,.F.);
#178=ORIENTED_EDGE('',*,*,#262,.F.);
#179=CARTESIAN_POINT('',(-63.0,35.5,500.0));
#180=DIRECTION('',(1.0,0.0,0.0));
#181=DIRECTION('',(0.0,0.0,-1.0));
#182=ORIENTED_EDGE('',*,*,#255,.F.);
#183=ORIENTED_EDGE('',*,*,#260,.T.);
#184=ORIENTED_EDGE('',*,*,#240,.F.);
#185=ORIENTED_EDGE('',*,*,#261,.F.);
#186=CARTESIAN_POINT('',(-56.0,15.0,500.0));
#187=DIRECTION('',(0.0,0.0,1.0));
#188=DIRECTION('',(1.0,0.0,0.0));
#189=ORIENTED_EDGE('',*,*,#253,.F.);
#190=ORIENTED_EDGE('',*,*,#263,.T.);
#191=ORIENTED_EDGE('',*,*,#242,.F.);
#192=ORIENTED_EDGE('',*,*,#259,.F.);
#193=CARTESIAN_POINT('',(56.0,15.0,500.0));
#194=DIRECTION('',(0.0,0.0,1.0));
#195=DIRECTION('',(1.0,0.0,0.0));
#196=ORIENTED_EDGE('',*,*,#252,.F.);
#197=ORIENTED_EDGE('',*,*,#264,.F.);
#198=ORIENTED_EDGE('',*,*,#243,.F.);
#199=ORIENTED_EDGE('',*,*,#263,.F.);
#200=CARTESIAN_POINT('',(63.0,35.5,500.0));
#201=DIRECTION('',(-1.0,0.0,0.0));
#202=DIRECTION('',(0.0,0.0,1.0));
#203=ORIENTED_EDGE('',*,*,#262,.T.);
#204=ORIENTED_EDGE('',*,*,#238,.F.);
#205=ORIENTED_EDGE('',*,*,#265,.F.);
#206=ORIENTED_EDGE('',*,*,#257,.F.);
#207=CARTESIAN_POINT('',(0.0,56.0,500.0));
#208=DIRECTION('',(0.0,-1.0,0.0));
#209=DIRECTION('',(0.0,0.0,-1.0));
#210=ORIENTED_EDGE('',*,*,#249,.F.);
#211=ORIENTED_EDGE('',*,*,#258,.F.);
#212=ORIENTED_EDGE('',*,*,#265,.T.);
#213=ORIENTED_EDGE('',*,*,#237,.F.);
#214=CARTESIAN_POINT('',(-71.0,28.0,500.0));
#215=DIRECTION('',(1.0,0.0,0.0));
#216=DIRECTION('',(0.0,0.0,-1.0));
#217=ORIENTED_EDGE('',*,*,#264,.T.);
#218=ORIENTED_EDGE('',*,*,#251,.F.);
#219=ORIENTED_EDGE('',*,*,#266,.T.);
#220=ORIENTED_EDGE('',*,*,#244,.F.);
#221=CARTESIAN_POINT('',(0.0,56.0,500.0));
#222=DIRECTION('',(0.0,-1.0,0.0));
#223=DIRECTION('',(0.0,0.0,-1.0));
#224=ORIENTED_EDGE('',*,*,#234,.T.);
#225=ORIENTED_EDGE('',*,*,#245,.F.);
#226=ORIENTED_EDGE('',*,*,#266,.F.);
#227=ORIENTED_EDGE('',*,*,#250,.F.);
#228=CARTESIAN_POINT('',(71.0,28.0,500.0));
#229=DIRECTION('',(-1.0,0.0,0.0));
#230=DIRECTION('',(0.0,0.0,1.0));
#231=EDGE_CURVE('',#267,#268,#269,.T.);
#232=EDGE_CURVE('',#267,#270,#271,.T.);
#233=EDGE_CURVE('',#272,#270,#273,.T.);
#234=EDGE_CURVE('',#268,#272,#274,.T.);
#235=EDGE_CURVE('',#270,#275,#276,.T.);
#236=EDGE_CURVE('',#275,#277,#278,.T.);
#237=EDGE_CURVE('',#277,#279,#280,.T.);
#238=EDGE_CURVE('',#279,#281,#282,.T.);
#239=EDGE_CURVE('',#281,#283,#284,.T.);
#240=EDGE_CURVE('',#283,#285,#286,.T.);
#241=EDGE_CURVE('',#285,#287,#288,.T.);
#242=EDGE_CURVE('',#287,#289,#290,.T.);
#243=EDGE_CURVE('',#289,#291,#292,.T.);
#244=EDGE_CURVE('',#291,#293,#294,.T.);
#245=EDGE_CURVE('',#293,#272,#295,.T.);
#246=EDGE_CURVE('',#296,#267,#297,.T.);
#247=EDGE_CURVE('',#296,#275,#298,.T.);
#248=EDGE_CURVE('',#299,#296,#300,.T.);
#249=EDGE_CURVE('',#299,#277,#301,.T.);
#250=EDGE_CURVE('',#268,#302,#303,.T.);
#251=EDGE_CURVE('',#302,#304,#305,.T.);
#252=EDGE_CURVE('',#304,#306,#307,.T.);
#253=EDGE_CURVE('',#306,#308,#309,.T.);
#254=EDGE_CURVE('',#308,#310,#311,.T.);
#255=EDGE_CURVE('',#310,#312,#313,.T.);
#256=EDGE_CURVE('',#312,#314,#315,.T.);
#257=EDGE_CURVE('',#314,#316,#317,.T.);
#258=EDGE_CURVE('',#316,#299,#318,.T.);
#259=EDGE_CURVE('',#308,#287,#319,.T.);
#260=EDGE_CURVE('',#310,#285,#320,.T.);
#261=EDGE_CURVE('',#312,#283,#321,.T.);
#262=EDGE_CURVE('',#314,#281,#322,.T.);
#263=EDGE_CURVE('',#306,#289,#323,.T.);
#264=EDGE_CURVE('',#291,#304,#324,.T.);
#265=EDGE_CURVE('',#316,#279,#325,.T.);
#266=EDGE_CURVE('',#302,#293,#326,.T.);
#267=VERTEX_POINT('',#327);
#268=VERTEX_POINT('',#328);
#269=CIRCLE('',#329,14.0);
#270=VERTEX_POINT('',#330);
#271=LINE('',#331,#332);
#272=VERTEX_POINT('',#333);
#273=CIRCLE('',#334,14.0);
#274=LINE('',#335,#336);
#275=VERTEX_POINT('',#337);
#276=LINE('',#338,#339);
#277=VERTEX_POINT('',#340);
#278=CIRCLE('',#341,14.0);
#279=VERTEX_POINT('',#342);
#280=LINE('',#343,#344);
#281=VERTEX_POINT('',#345);
#282=LINE('',#346,#347);
#283=VERTEX_POINT('',#348);
#284=LINE('',#349,#350);
#285=VERTEX_POINT('',#351);
#286=CIRCLE('',#352,7.0);
#287=VERTEX_POINT('',#353);
#288=LINE('',#354,#355);
#289=VERTEX_POINT('',#356);
#290=CIRCLE('',#357,7.0);
#291=VERTEX_POINT('',#358);
#292=LINE('',#359,#360);
#293=VERTEX_POINT('',#361);
#294=LINE('',#362,#363);
#295=LINE('',#364,#365);
#296=VERTEX_POINT('',#366);
#297=LINE('',#367,#368);
#298=LINE('',#369,#370);
#299=VERTEX_POINT('',#371);
#300=CIRCLE('',#372,14.0);
#301=LINE('',#373,#374);
#302=VERTEX_POINT('',#375);
#303=LINE('',#376,#377);
#304=VERTEX_POINT('',#378);
#305=LINE('',#379,#380);
#306=VERTEX_POINT('',#381);
#307=LINE('',#382,#383);
#308=VERTEX_POINT('',#384);
#309=CIRCLE('',#385,7.0);
#310=VERTEX_POINT('',#386);
#311=LINE('',#387,#388);
#312=VERTEX_POINT('',#389);
#313=CIRCLE('',#390,7.0);
#314=VERTEX_POINT('',#391);
#315=LINE('',#392,#393);
#316=VERTEX_POINT('',#394);
#317=LINE('',#395,#396);
#318=LINE('',#397,#398);
#319=LINE('',#399,#400);
#320=LINE('',#401,#402);
#321=LINE('',#403,#404);
#322=LINE('',#405,#406);
#323=LINE('',#407,#408);
#324=LINE('',#409,#410);
#325=LINE('',#411,#412);
#326=LINE('',#413,#414);
#327=CARTESIAN_POINT('',(57.0,2.57167334302699E-15,1000.0));
#328=CARTESIAN_POINT('',(71.0,14.0,1000.0));
#329=AXIS2_PLACEMENT_3D('',#415,#416,#417);
#330=CARTESIAN_POINT('',(57.0,2.57167334302699E-15,0.0));
#331=CARTESIAN_POINT('',(57.0,0.0,500.0));
#332=VECTOR('',#418,1.0);
#333=CARTESIAN_POINT('',(71.0,14.0,0.0));
#334=AXIS2_PLACEMENT_3D('',#419,#420,#421);
#335=CARTESIAN_POINT('',(71.0,14.0,500.0));
#336=VECTOR('',#422,1.0);
#337=CARTESIAN_POINT('',(-57.0,-1.71444889535133E-15,0.0));
#338=CARTESIAN_POINT('',(0.0,0.0,0.0));
#339=VECTOR('',#423,1.0);
#340=CARTESIAN_POINT('',(-71.0,14.0,0.0));
#341=AXIS2_PLACEMENT_3D('',#424,#425,#426);
#342=CARTESIAN_POINT('',(-71.0,56.0,0.0));
#343=CARTESIAN_POINT('',(-71.0,28.0,0.0));
#344=VECTOR('',#427,1.0);
#345=CARTESIAN_POINT('',(-63.0,56.0,0.0));
#346=CARTESIAN_POINT('',(0.0,56.0,0.0));
#347=VECTOR('',#428,1.0);
#348=CARTESIAN_POINT('',(-63.0,15.0,0.0));
#349=CARTESIAN_POINT('',(-63.0,31.75,0.0));
#350=VECTOR('',#429,1.0);
#351=CARTESIAN_POINT('',(-56.0,8.0,0.0));
#352=AXIS2_PLACEMENT_3D('',#430,#431,#432);
#353=CARTESIAN_POINT('',(56.0,8.0,0.0));
#354=CARTESIAN_POINT('',(0.0,8.0,0.0));
#355=VECTOR('',#433,1.0);
#356=CARTESIAN_POINT('',(63.0,15.0,0.0));
#357=AXIS2_PLACEMENT_3D('',#434,#435,#436);
#358=CARTESIAN_POINT('',(63.0,56.0,0.0));
#359=CARTESIAN_POINT('',(63.0,31.75,0.0));
#360=VECTOR('',#437,1.0);
#361=CARTESIAN_POINT('',(71.0,56.0,0.0));
#362=CARTESIAN_POINT('',(0.0,56.0,0.0));
#363=VECTOR('',#438,1.0);
#364=CARTESIAN_POINT('',(71.0,28.0,0.0));
#365=VECTOR('',#439,1.0);
#366=CARTESIAN_POINT('',(-57.0,-1.71444889535133E-15,1000.0));
#367=CARTESIAN_POINT('',(0.0,0.0,1000.0));
#368=VECTOR('',#440,1.0);
#369=CARTESIAN_POINT('',(-57.0,0.0,500.0));
#370=VECTOR('',#441,1.0);
#371=CARTESIAN_POINT('',(-71.0,14.0,1000.0));
#372=AXIS2_PLACEMENT_3D('',#442,#443,#444);
#373=CARTESIAN_POINT('',(-71.0,14.0,500.0));
#374=VECTOR('',#445,1.0);
#375=CARTESIAN_POINT('',(71.0,56.0,1000.0));
#376=CARTESIAN_POINT('',(71.0,28.0,1000.0));
#377=VECTOR('',#446,1.0);
#378=CARTESIAN_POINT('',(63.0,56.0,1000.0));
#379=CARTESIAN_POINT('',(0.0,56.0,1000.0));
#380=VECTOR('',#447,1.0);
#381=CARTESIAN_POINT('',(63.0,15.0,1000.0));
#382=CARTESIAN_POINT('',(63.0,31.75,1000.0));
#383=VECTOR('',#448,1.0);
#384=CARTESIAN_POINT('',(56.0,8.0,1000.0));
#385=AXIS2_PLACEMENT_3D('',#449,#450,#451);
#386=CARTESIAN_POINT('',(-56.0,8.0,1000.0));
#387=CARTESIAN_POINT('',(0.0,8.0,1000.0));
#388=VECTOR('',#452,1.0);
#389=CARTESIAN_POINT('',(-63.0,15.0,1000.0));
#390=AXIS2_PLACEMENT_3D('',#453,#454,#455);
#391=CARTESIAN_POINT('',(-63.0,56.0,1000.0));
#392=CARTESIAN_POINT('',(-63.0,31.75,1000.0));
#393=VECTOR('',#456,1.0);
#394=CARTESIAN_POINT('',(-71.0,56.0,1000.0));
#395=CARTESIAN_POINT('',(0.0,56.0,1000.0));
#396=VECTOR('',#457,1.0);
#397=CARTESIAN_POINT('',(-71.0,28.0,1000.0));
#398=VECTOR('',#458,1.0);
#399=CARTESIAN_POINT('',(56.0,8.0,500.0));
#400=VECTOR('',#459,1.0);
#401=CARTESIAN_POINT('',(-56.0,8.0,500.0));
#402=VECTOR('',#460,1.0);
#403=CARTESIAN_POINT('',(-63.0,15.0,500.0));
#404=VECTOR('',#461,1.0);
#405=CARTESIAN_POINT('',(-63.0,56.0,500.0));
#406=VECTOR('',#462,1.0);
#407=CARTESIAN_POINT('',(63.0,15.0,500.0));
#408=VECTOR('',#463,1.0);
#409=CARTESIAN_POINT('',(63.0,56.0,500.0));
#410=VECTOR('',#464,1.0);
#411=CARTESIAN_POINT('',(-71.0,56.0,500.0));
#412=VECTOR('',#465,1.0);
#413=CARTESIAN_POINT('',(71.0,56.0,500.0));
#414=VECTOR('',#466,1.0);
#415=CARTESIAN_POINT('',(57.0,14.0,1000.0));
#416=DIRECTION('',(0.0,0.0,1.0));
#417=DIRECTION('',(-1.83690953073357E-16,-1.0,0.0));
#418=DIRECTION('',(0.0,-0.0,-1.0));
#419=CARTESIAN_POINT('',(57.0,14.0,0.0));
#420=DIRECTION('',(-0.0,0.0,-1.0));
#421=DIRECTION('',(-1.83690953073357E-16,-1.0,0.0));
#422=DIRECTION('',(0.0,0.0,-1.0));
#423=DIRECTION('',(-1.0,0.0,0.0));
#424=CARTESIAN_POINT('',(-57.0,14.0,0.0));
#425=DIRECTION('',(-0.0,0.0,-1.0));
#426=DIRECTION('',(-1.0,1.22460635382238E-16,0.0));
#427=DIRECTION('',(0.0,1.0,0.0));
#428=DIRECTION('',(1.0,0.0,0.0));
#429=DIRECTION('',(0.0,-1.0,0.0));
#430=CARTESIAN_POINT('',(-56.0,15.0,0.0));
#431=DIRECTION('',(0.0,0.0,1.0));
#432=DIRECTION('',(1.0,0.0,0.0));
#433=DIRECTION('',(1.0,0.0,0.0));
#434=CARTESIAN_POINT('',(56.0,15.0,0.0));
#435=DIRECTION('',(0.0,0.0,1.0));
#436=DIRECTION('',(1.0,0.0,0.0));
#437=DIRECTION('',(0.0,1.0,-0.0));
#438=DIRECTION('',(1.0,0.0,0.0));
#439=DIRECTION('',(0.0,-1.0,0.0));
#440=DIRECTION('',(1.0,0.0,0.0));
#441=DIRECTION('',(0.0,-0.0,-1.0));
#442=CARTESIAN_POINT('',(-57.0,14.0,1000.0));
#443=DIRECTION('',(0.0,0.0,1.0));
#444=DIRECTION('',(-1.0,1.22460635382238E-16,0.0));
#445=DIRECTION('',(-0.0,0.0,-1.0));
#446=DIRECTION('',(0.0,1.0,0.0));
#447=DIRECTION('',(-1.0,0.0,0.0));
#448=DIRECTION('',(0.0,-1.0,0.0));
#449=CARTESIAN_POINT('',(56.0,15.0,1000.0));
#450=DIRECTION('',(0.0,0.0,-1.0));
#451=DIRECTION('',(1.0,0.0,0.0));
#452=DIRECTION('',(-1.0,0.0,0.0));
#453=CARTESIAN_POINT('',(-56.0,15.0,1000.0));
#454=DIRECTION('',(0.0,0.0,-1.0));
#455=DIRECTION('',(1.0,0.0,0.0));
#456=DIRECTION('',(0.0,1.0,0.0));
#457=DIRECTION('',(-1.0,0.0,0.0));
#458=DIRECTION('',(0.0,-1.0,0.0));
#459=DIRECTION('',(0.0,0.0,-1.0));
#460=DIRECTION('',(0.0,0.0,-1.0));
#461=DIRECTION('',(0.0,0.0,-1.0));
#462=DIRECTION('',(0.0,0.0,-1.0));
#463=DIRECTION('',(0.0,0.0,-1.0));
#464=DIRECTION('',(0.0,0.0,1.0));
#465=DIRECTION('',(0.0,0.0,-1.0));
#466=DIRECTION('',(0.0,0.0,-1.0));
ENDSEC;
END-ISO-10303-21;
