ISO-10303-21;
HEADER;
FILE_DESCRIPTION (( 'STEP AP214' ),
    '1' );
FILE_NAME ('W80.STEP',
    '2021-12-29T08:14:29',
    ( '' ),
    ( '' ),
    'SwSTEP 2.0',
    'SolidWorks 2020',
    '' );
FILE_SCHEMA (( 'AUTOMOTIVE_DESIGN' ));
ENDSEC;

DATA;
#1 = PRODUCT_RELATED_PRODUCT_CATEGORY ( 'part', '', ( #56 ) ) ;
#2 = DIRECTION ( 'NONE',  ( -1.000000000000000000, 0.000000000000000000, 0.000000000000000000 ) ) ;
#3 = UNCERTAINTY_MEASURE_WITH_UNIT (LENGTH_MEASURE( 1.000000000000000082E-05 ), #101, 'distance_accuracy_value', 'NONE');
#4 = PRESENTATION_STYLE_ASSIGNMENT (( #113 ) ) ;
#5 = DIRECTION ( 'NONE',  ( 1.000000000000000000, 0.000000000000000000, 0.000000000000000000 ) ) ;
#6 = CIRCLE ( 'NONE', #49, 40.00000000000000000 ) ;
#7 = VERTEX_POINT ( 'NONE', #54 ) ;
#8 = ORIENTED_EDGE ( 'NONE', *, *, #100, .T. ) ;
#9 = CARTESIAN_POINT ( 'NONE',  ( 0.000000000000000000, 0.000000000000000000, 3500.000000000000000 ) ) ;
#10 = DIRECTION ( 'NONE',  ( 0.000000000000000000, 0.000000000000000000, 1.000000000000000000 ) ) ;
#11 = AXIS2_PLACEMENT_3D ( 'NONE', #77, #68, #105 ) ;
#12 = DIRECTION ( 'NONE',  ( 1.000000000000000000, 0.000000000000000000, 0.000000000000000000 ) ) ;
#13 = EDGE_CURVE ( 'NONE', #7, #41, #6, .T. ) ;
#14 = CYLINDRICAL_SURFACE ( 'NONE', #112, 40.00000000000000000 ) ;
#15 = CLOSED_SHELL ( 'NONE', ( #45, #114, #134, #36 ) ) ;
#16 = CARTESIAN_POINT ( 'NONE',  ( 0.000000000000000000, 0.000000000000000000, 3500.000000000000000 ) ) ;
#17 =( NAMED_UNIT ( * ) SI_UNIT ( $, .STERADIAN. ) SOLID_ANGLE_UNIT ( ) );
#18 =( GEOMETRIC_REPRESENTATION_CONTEXT ( 3 ) GLOBAL_UNCERTAINTY_ASSIGNED_CONTEXT ( ( #39 ) ) GLOBAL_UNIT_ASSIGNED_CONTEXT ( ( #26, #85, #17 ) ) REPRESENTATION_CONTEXT ( 'NONE', 'WORKASPACE' ) );
#19 =( GEOMETRIC_REPRESENTATION_CONTEXT ( 3 ) GLOBAL_UNCERTAINTY_ASSIGNED_CONTEXT ( ( #3 ) ) GLOBAL_UNIT_ASSIGNED_CONTEXT ( ( #101, #25, #98 ) ) REPRESENTATION_CONTEXT ( 'NONE', 'WORKASPACE' ) );
#20 = ORIENTED_EDGE ( 'NONE', *, *, #75, .T. ) ;
#21 = CARTESIAN_POINT ( 'NONE',  ( 0.000000000000000000, 0.000000000000000000, 0.000000000000000000 ) ) ;
#22 = DIRECTION ( 'NONE',  ( -0.000000000000000000, -0.000000000000000000, -1.000000000000000000 ) ) ;
#23 = PRESENTATION_STYLE_ASSIGNMENT (( #57 ) ) ;
#24 = DIRECTION ( 'NONE',  ( 0.000000000000000000, 0.000000000000000000, 1.000000000000000000 ) ) ;
#25 =( NAMED_UNIT ( * ) PLANE_ANGLE_UNIT ( ) SI_UNIT ( $, .RADIAN. ) );
#26 =( LENGTH_UNIT ( ) NAMED_UNIT ( * ) SI_UNIT ( .MILLI., .METRE. ) );
#27 = PRODUCT_DEFINITION_FORMATION_WITH_SPECIFIED_SOURCE ( 'ANY', '', #56, .NOT_KNOWN. ) ;
#28 = DIRECTION ( 'NONE',  ( 0.000000000000000000, 0.000000000000000000, 1.000000000000000000 ) ) ;
#29 = PRODUCT_DEFINITION ( 'UNKNOWN', '', #27, #48 ) ;
#30 = ORIENTED_EDGE ( 'NONE', *, *, #61, .F. ) ;
#31 = ORIENTED_EDGE ( 'NONE', *, *, #13, .F. ) ;
#32 = STYLED_ITEM ( 'NONE', ( #23 ), #50 ) ;
#33 = CARTESIAN_POINT ( 'NONE',  ( 40.00000000000000000, 4.898587196589413026E-15, 3500.000000000000000 ) ) ;
#34 = PLANE ( 'NONE',  #88 ) ;
#35 = ORIENTED_EDGE ( 'NONE', *, *, #86, .T. ) ;
#36 = ADVANCED_FACE ( 'NONE', ( #93 ), #81, .F. ) ;
#37 = DIRECTION ( 'NONE',  ( 1.000000000000000000, 0.000000000000000000, -0.000000000000000000 ) ) ;
#38 = FACE_OUTER_BOUND ( 'NONE', #124, .T. ) ;
#39 = UNCERTAINTY_MEASURE_WITH_UNIT (LENGTH_MEASURE( 1.000000000000000082E-05 ), #26, 'distance_accuracy_value', 'NONE');
#40 = COLOUR_RGB ( '',0.7921568627450980005, 0.8196078431372548767, 0.9333333333333333481 ) ;
#41 = VERTEX_POINT ( 'NONE', #102 ) ;
#42 = ORIENTED_EDGE ( 'NONE', *, *, #138, .T. ) ;
#43 = ORIENTED_EDGE ( 'NONE', *, *, #100, .F. ) ;
#44 = LINE ( 'NONE', #132, #72 ) ;
#45 = ADVANCED_FACE ( 'NONE', ( #109 ), #14, .T. ) ;
#46 = AXIS2_PLACEMENT_3D ( 'NONE', #110, #10, #12 ) ;
#47 = DIRECTION ( 'NONE',  ( -0.000000000000000000, -0.000000000000000000, -1.000000000000000000 ) ) ;
#48 = PRODUCT_DEFINITION_CONTEXT ( 'detailed design', #67, 'design' ) ;
#49 = AXIS2_PLACEMENT_3D ( 'NONE', #90, #24, #94 ) ;
#50 = MANIFOLD_SOLID_BREP ( 'Boss-Extrude1', #15 ) ;
#51 = ORIENTED_EDGE ( 'NONE', *, *, #138, .F. ) ;
#52 = ADVANCED_BREP_SHAPE_REPRESENTATION ( 'W80', ( #50, #73 ), #18 ) ;
#53 = DIRECTION ( 'NONE',  ( 0.000000000000000000, 0.000000000000000000, 1.000000000000000000 ) ) ;
#54 = CARTESIAN_POINT ( 'NONE',  ( 40.00000000000000000, 4.898587196589413026E-15, 3500.000000000000000 ) ) ;
#55 = SURFACE_STYLE_FILL_AREA ( #78 ) ;
#56 = PRODUCT ( 'W80', 'W80', '', ( #60 ) ) ;
#57 = SURFACE_STYLE_USAGE ( .BOTH. , #103 ) ;
#58 =( GEOMETRIC_REPRESENTATION_CONTEXT ( 3 ) GLOBAL_UNCERTAINTY_ASSIGNED_CONTEXT ( ( #135 ) ) GLOBAL_UNIT_ASSIGNED_CONTEXT ( ( #82, #62, #123 ) ) REPRESENTATION_CONTEXT ( 'NONE', 'WORKASPACE' ) );
#59 = CARTESIAN_POINT ( 'NONE',  ( 0.000000000000000000, 0.000000000000000000, 3500.000000000000000 ) ) ;
#60 = PRODUCT_CONTEXT ( 'NONE', #129, 'mechanical' ) ;
#61 = EDGE_CURVE ( 'NONE', #127, #106, #64, .T. ) ;
#62 =( NAMED_UNIT ( * ) PLANE_ANGLE_UNIT ( ) SI_UNIT ( $, .RADIAN. ) );
#63 = ORIENTED_EDGE ( 'NONE', *, *, #61, .T. ) ;
#64 = CIRCLE ( 'NONE', #46, 40.00000000000000000 ) ;
#65 = ORIENTED_EDGE ( 'NONE', *, *, #86, .F. ) ;
#66 = CARTESIAN_POINT ( 'NONE',  ( -40.00000000000000000, 0.000000000000000000, 0.000000000000000000 ) ) ;
#67 = APPLICATION_CONTEXT ( 'automotive_design' ) ;
#68 = DIRECTION ( 'NONE',  ( 0.000000000000000000, 0.000000000000000000, 1.000000000000000000 ) ) ;
#69 = CIRCLE ( 'NONE', #122, 40.00000000000000000 ) ;
#70 = CYLINDRICAL_SURFACE ( 'NONE', #121, 40.00000000000000000 ) ;
#71 = FILL_AREA_STYLE_COLOUR ( '', #40 ) ;
#72 = VECTOR ( 'NONE', #131, 1000.000000000000000 ) ;
#73 = AXIS2_PLACEMENT_3D ( 'NONE', #97, #28, #5 ) ;
#74 = CIRCLE ( 'NONE', #11, 40.00000000000000000 ) ;
#75 = EDGE_CURVE ( 'NONE', #7, #106, #130, .T. ) ;
#76 = ORIENTED_EDGE ( 'NONE', *, *, #75, .F. ) ;
#77 = CARTESIAN_POINT ( 'NONE',  ( 0.000000000000000000, 0.000000000000000000, 3500.000000000000000 ) ) ;
#78 = FILL_AREA_STYLE ('',( #128 ) ) ;
#79 = PRODUCT_DEFINITION_SHAPE ( 'NONE', 'NONE',  #29 ) ;
#80 = DIRECTION ( 'NONE',  ( 1.000000000000000000, 0.000000000000000000, 0.000000000000000000 ) ) ;
#81 = PLANE ( 'NONE',  #126 ) ;
#82 =( LENGTH_UNIT ( ) NAMED_UNIT ( * ) SI_UNIT ( .MILLI., .METRE. ) );
#83 = PRESENTATION_LAYER_ASSIGNMENT (  '', '', ( #32 ) ) ;
#84 = MECHANICAL_DESIGN_GEOMETRIC_PRESENTATION_REPRESENTATION (  '', ( #116 ), #58 ) ;
#85 =( NAMED_UNIT ( * ) PLANE_ANGLE_UNIT ( ) SI_UNIT ( $, .RADIAN. ) );
#86 = EDGE_CURVE ( 'NONE', #41, #127, #44, .T. ) ;
#87 = EDGE_LOOP ( 'NONE', ( #30, #43 ) ) ;
#88 = AXIS2_PLACEMENT_3D ( 'NONE', #9, #53, #139 ) ;
#89 = DIRECTION ( 'NONE',  ( 0.000000000000000000, 0.000000000000000000, 1.000000000000000000 ) ) ;
#90 = CARTESIAN_POINT ( 'NONE',  ( 0.000000000000000000, 0.000000000000000000, 3500.000000000000000 ) ) ;
#91 = VECTOR ( 'NONE', #22, 1000.000000000000000 ) ;
#92 = PRESENTATION_LAYER_ASSIGNMENT (  '', '', ( #116 ) ) ;
#93 = FACE_OUTER_BOUND ( 'NONE', #87, .T. ) ;
#94 = DIRECTION ( 'NONE',  ( 1.000000000000000000, 0.000000000000000000, 0.000000000000000000 ) ) ;
#95 = EDGE_LOOP ( 'NONE', ( #31, #20, #8, #65 ) ) ;
#96 = SHAPE_DEFINITION_REPRESENTATION ( #79, #52 ) ;
#97 = CARTESIAN_POINT ( 'NONE',  ( 0.000000000000000000, 0.000000000000000000, 0.000000000000000000 ) ) ;
#98 =( NAMED_UNIT ( * ) SI_UNIT ( $, .STERADIAN. ) SOLID_ANGLE_UNIT ( ) );
#99 = EDGE_LOOP ( 'NONE', ( #42, #125 ) ) ;
#100 = EDGE_CURVE ( 'NONE', #106, #127, #69, .T. ) ;
#101 =( LENGTH_UNIT ( ) NAMED_UNIT ( * ) SI_UNIT ( .MILLI., .METRE. ) );
#102 = CARTESIAN_POINT ( 'NONE',  ( -40.00000000000000000, 0.000000000000000000, 3500.000000000000000 ) ) ;
#103 = SURFACE_SIDE_STYLE ('',( #55 ) ) ;
#104 = FILL_AREA_STYLE ('',( #71 ) ) ;
#105 = DIRECTION ( 'NONE',  ( 1.000000000000000000, 0.000000000000000000, 0.000000000000000000 ) ) ;
#106 = VERTEX_POINT ( 'NONE', #118 ) ;
#107 = MECHANICAL_DESIGN_GEOMETRIC_PRESENTATION_REPRESENTATION (  '', ( #32 ), #19 ) ;
#108 = FACE_OUTER_BOUND ( 'NONE', #99, .T. ) ;
#109 = FACE_OUTER_BOUND ( 'NONE', #95, .T. ) ;
#110 = CARTESIAN_POINT ( 'NONE',  ( 0.000000000000000000, 0.000000000000000000, 0.000000000000000000 ) ) ;
#111 = DIRECTION ( 'NONE',  ( -1.000000000000000000, 0.000000000000000000, 0.000000000000000000 ) ) ;
#112 = AXIS2_PLACEMENT_3D ( 'NONE', #16, #47, #111 ) ;
#113 = SURFACE_STYLE_USAGE ( .BOTH. , #120 ) ;
#114 = ADVANCED_FACE ( 'NONE', ( #38 ), #70, .T. ) ;
#115 = APPLICATION_PROTOCOL_DEFINITION ( 'draft international standard', 'automotive_design', 1998, #67 ) ;
#116 = STYLED_ITEM ( 'NONE', ( #4 ), #52 ) ;
#117 = DIRECTION ( 'NONE',  ( -0.000000000000000000, -0.000000000000000000, -1.000000000000000000 ) ) ;
#118 = CARTESIAN_POINT ( 'NONE',  ( 40.00000000000000000, 4.898587196589413026E-15, 0.000000000000000000 ) ) ;
#119 = DIRECTION ( 'NONE',  ( 0.000000000000000000, 0.000000000000000000, 1.000000000000000000 ) ) ;
#120 = SURFACE_SIDE_STYLE ('',( #136 ) ) ;
#121 = AXIS2_PLACEMENT_3D ( 'NONE', #59, #117, #2 ) ;
#122 = AXIS2_PLACEMENT_3D ( 'NONE', #21, #89, #80 ) ;
#123 =( NAMED_UNIT ( * ) SI_UNIT ( $, .STERADIAN. ) SOLID_ANGLE_UNIT ( ) );
#124 = EDGE_LOOP ( 'NONE', ( #76, #51, #35, #63 ) ) ;
#125 = ORIENTED_EDGE ( 'NONE', *, *, #13, .T. ) ;
#126 = AXIS2_PLACEMENT_3D ( 'NONE', #140, #119, #37 ) ;
#127 = VERTEX_POINT ( 'NONE', #66 ) ;
#128 = FILL_AREA_STYLE_COLOUR ( '', #137 ) ;
#129 = APPLICATION_CONTEXT ( 'automotive_design' ) ;
#130 = LINE ( 'NONE', #33, #91 ) ;
#131 = DIRECTION ( 'NONE',  ( -0.000000000000000000, -0.000000000000000000, -1.000000000000000000 ) ) ;
#132 = CARTESIAN_POINT ( 'NONE',  ( -40.00000000000000000, 0.000000000000000000, 3500.000000000000000 ) ) ;
#133 = APPLICATION_PROTOCOL_DEFINITION ( 'draft international standard', 'automotive_design', 1998, #129 ) ;
#134 = ADVANCED_FACE ( 'NONE', ( #108 ), #34, .T. ) ;
#135 = UNCERTAINTY_MEASURE_WITH_UNIT (LENGTH_MEASURE( 1.000000000000000082E-05 ), #82, 'distance_accuracy_value', 'NONE');
#136 = SURFACE_STYLE_FILL_AREA ( #104 ) ;
#137 = COLOUR_RGB ( '',0.7921568627450980005, 0.8196078431372548767, 0.9333333333333333481 ) ;
#138 = EDGE_CURVE ( 'NONE', #41, #7, #74, .T. ) ;
#139 = DIRECTION ( 'NONE',  ( 1.000000000000000000, 0.000000000000000000, -0.000000000000000000 ) ) ;
#140 = CARTESIAN_POINT ( 'NONE',  ( 0.000000000000000000, 0.000000000000000000, 0.000000000000000000 ) ) ;
ENDSEC;
END-ISO-10303-21;
