ISO-10303-21;
HEADER;
FILE_DESCRIPTION (( 'STEP AP214' ),
    '1' );
FILE_NAME ('W14.STEP',
    '2021-12-29T07:50:34',
    ( '' ),
    ( '' ),
    'SwSTEP 2.0',
    'SolidWorks 2020',
    '' );
FILE_SCHEMA (( 'AUTOMOTIVE_DESIGN' ));
ENDSEC;

DATA;
#1 = PRODUCT ( 'W14', 'W14', '', ( #71 ) ) ;
#2 = VERTEX_POINT ( 'NONE', #155 ) ;
#3 = UNCERTAINTY_MEASURE_WITH_UNIT (LENGTH_MEASURE( 1.000000000000000082E-05 ), #114, 'distance_accuracy_value', 'NONE');
#4 =( NAMED_UNIT ( * ) PLANE_ANGLE_UNIT ( ) SI_UNIT ( $, .RADIAN. ) );
#5 =( LENGTH_UNIT ( ) NAMED_UNIT ( * ) SI_UNIT ( .MILLI., .METRE. ) );
#6 = CIRCLE ( 'NONE', #175, 7.000000000000000000 ) ;
#7 = DIRECTION ( 'NONE',  ( 0.000000000000000000, 0.000000000000000000, 1.000000000000000000 ) ) ;
#8 = CARTESIAN_POINT ( 'NONE',  ( -7.000000000000000000, 0.000000000000000000, 500.0000000000000000 ) ) ;
#9 = DIRECTION ( 'NONE',  ( 1.000000000000000000, 0.000000000000000000, -0.000000000000000000 ) ) ;
#10 = SURFACE_STYLE_USAGE ( .BOTH. , #37 ) ;
#11 = CARTESIAN_POINT ( 'NONE',  ( 0.000000000000000000, 0.000000000000000000, 0.000000000000000000 ) ) ;
#12 = DIRECTION ( 'NONE',  ( 1.000000000000000000, 0.000000000000000000, 0.000000000000000000 ) ) ;
#13 = SURFACE_STYLE_FILL_AREA ( #87 ) ;
#14 = SURFACE_STYLE_USAGE ( .BOTH. , #17 ) ;
#15 = ADVANCED_BREP_SHAPE_REPRESENTATION ( 'W14', ( #110, #129 ), #173 ) ;
#16 = VERTEX_POINT ( 'NONE', #19 ) ;
#17 = SURFACE_SIDE_STYLE ('',( #174 ) ) ;
#18 = UNCERTAINTY_MEASURE_WITH_UNIT (LENGTH_MEASURE( 1.000000000000000082E-05 ), #193, 'distance_accuracy_value', 'NONE');
#19 = CARTESIAN_POINT ( 'NONE',  ( 7.000000000000000000, 8.572527594031473190E-16, 500.0000000000000000 ) ) ;
#20 =( NAMED_UNIT ( * ) SI_UNIT ( $, .STERADIAN. ) SOLID_ANGLE_UNIT ( ) );
#21 = MECHANICAL_DESIGN_GEOMETRIC_PRESENTATION_REPRESENTATION (  '', ( #156 ), #60 ) ;
#22 = DIRECTION ( 'NONE',  ( -0.000000000000000000, -0.000000000000000000, -1.000000000000000000 ) ) ;
#23 = APPLICATION_CONTEXT ( 'automotive_design' ) ;
#24 =( NAMED_UNIT ( * ) PLANE_ANGLE_UNIT ( ) SI_UNIT ( $, .RADIAN. ) );
#25 = CARTESIAN_POINT ( 'NONE',  ( 0.000000000000000000, 0.000000000000000000, 500.0000000000000000 ) ) ;
#26 = PRESENTATION_LAYER_ASSIGNMENT (  '', '', ( #93 ) ) ;
#27 = ADVANCED_FACE ( 'NONE', ( #105 ), #170, .T. ) ;
#28 = CARTESIAN_POINT ( 'NONE',  ( 0.000000000000000000, 0.000000000000000000, 500.0000000000000000 ) ) ;
#29 = DIRECTION ( 'NONE',  ( 1.000000000000000000, 0.000000000000000000, 0.000000000000000000 ) ) ;
#30 = SURFACE_STYLE_FILL_AREA ( #165 ) ;
#31 = FILL_AREA_STYLE_COLOUR ( '', #171 ) ;
#32 = CIRCLE ( 'NONE', #184, 7.000000000000000000 ) ;
#33 = ORIENTED_EDGE ( 'NONE', *, *, #123, .T. ) ;
#34 = FILL_AREA_STYLE_COLOUR ( '', #137 ) ;
#35 = CARTESIAN_POINT ( 'NONE',  ( 0.000000000000000000, 0.000000000000000000, 0.000000000000000000 ) ) ;
#36 = CARTESIAN_POINT ( 'NONE',  ( 0.000000000000000000, 0.000000000000000000, 0.000000000000000000 ) ) ;
#37 = SURFACE_SIDE_STYLE ('',( #13 ) ) ;
#38 = CIRCLE ( 'NONE', #138, 7.000000000000000000 ) ;
#39 = PRODUCT_DEFINITION ( 'UNKNOWN', '', #104, #141 ) ;
#40 = EDGE_LOOP ( 'NONE', ( #158, #108 ) ) ;
#41 = EDGE_LOOP ( 'NONE', ( #77, #172, #33, #125 ) ) ;
#42 = MECHANICAL_DESIGN_GEOMETRIC_PRESENTATION_REPRESENTATION (  '', ( #93 ), #148 ) ;
#43 = DIRECTION ( 'NONE',  ( 0.000000000000000000, 0.000000000000000000, 1.000000000000000000 ) ) ;
#44 = VECTOR ( 'NONE', #22, 1000.000000000000000 ) ;
#45 = SURFACE_STYLE_FILL_AREA ( #81 ) ;
#46 =( LENGTH_UNIT ( ) NAMED_UNIT ( * ) SI_UNIT ( .MILLI., .METRE. ) );
#47 = VECTOR ( 'NONE', #70, 1000.000000000000000 ) ;
#48 = FILL_AREA_STYLE ('',( #52 ) ) ;
#49 =( LENGTH_UNIT ( ) NAMED_UNIT ( * ) SI_UNIT ( .MILLI., .METRE. ) );
#50 =( NAMED_UNIT ( * ) PLANE_ANGLE_UNIT ( ) SI_UNIT ( $, .RADIAN. ) );
#51 = FACE_OUTER_BOUND ( 'NONE', #41, .T. ) ;
#52 = FILL_AREA_STYLE_COLOUR ( '', #86 ) ;
#53 = STYLED_ITEM ( 'NONE', ( #118 ), #15 ) ;
#54 = SHAPE_DEFINITION_REPRESENTATION ( #92, #15 ) ;
#55 = APPLICATION_CONTEXT ( 'automotive_design' ) ;
#56 = EDGE_CURVE ( 'NONE', #57, #2, #6, .T. ) ;
#57 = VERTEX_POINT ( 'NONE', #115 ) ;
#58 = VERTEX_POINT ( 'NONE', #8 ) ;
#59 = ORIENTED_EDGE ( 'NONE', *, *, #140, .T. ) ;
#60 =( GEOMETRIC_REPRESENTATION_CONTEXT ( 3 ) GLOBAL_UNCERTAINTY_ASSIGNED_CONTEXT ( ( #80 ) ) GLOBAL_UNIT_ASSIGNED_CONTEXT ( ( #46, #94, #163 ) ) REPRESENTATION_CONTEXT ( 'NONE', 'WORKASPACE' ) );
#61 = SURFACE_STYLE_FILL_AREA ( #191 ) ;
#62 = EDGE_CURVE ( 'NONE', #2, #57, #167, .T. ) ;
#63 = SURFACE_STYLE_USAGE ( .BOTH. , #194 ) ;
#64 =( NAMED_UNIT ( * ) SI_UNIT ( $, .STERADIAN. ) SOLID_ANGLE_UNIT ( ) );
#65 = UNCERTAINTY_MEASURE_WITH_UNIT (LENGTH_MEASURE( 1.000000000000000082E-05 ), #49, 'distance_accuracy_value', 'NONE');
#66 = AXIS2_PLACEMENT_3D ( 'NONE', #90, #98, #152 ) ;
#67 =( NAMED_UNIT ( * ) SI_UNIT ( $, .STERADIAN. ) SOLID_ANGLE_UNIT ( ) );
#68 = MECHANICAL_DESIGN_GEOMETRIC_PRESENTATION_REPRESENTATION (  '', ( #53 ), #79 ) ;
#69 = DIRECTION ( 'NONE',  ( 1.000000000000000000, 0.000000000000000000, 0.000000000000000000 ) ) ;
#70 = DIRECTION ( 'NONE',  ( -0.000000000000000000, -0.000000000000000000, -1.000000000000000000 ) ) ;
#71 = PRODUCT_CONTEXT ( 'NONE', #55, 'mechanical' ) ;
#72 = DIRECTION ( 'NONE',  ( 0.000000000000000000, 0.000000000000000000, 1.000000000000000000 ) ) ;
#73 = FILL_AREA_STYLE_COLOUR ( '', #107 ) ;
#74 = PRESENTATION_STYLE_ASSIGNMENT (( #14 ) ) ;
#75 = PRESENTATION_LAYER_ASSIGNMENT (  '', '', ( #126 ) ) ;
#76 = AXIS2_PLACEMENT_3D ( 'NONE', #11, #72, #9 ) ;
#77 = ORIENTED_EDGE ( 'NONE', *, *, #83, .F. ) ;
#78 = MECHANICAL_DESIGN_GEOMETRIC_PRESENTATION_REPRESENTATION (  '', ( #147 ), #198 ) ;
#79 =( GEOMETRIC_REPRESENTATION_CONTEXT ( 3 ) GLOBAL_UNCERTAINTY_ASSIGNED_CONTEXT ( ( #178 ) ) GLOBAL_UNIT_ASSIGNED_CONTEXT ( ( #101, #168, #67 ) ) REPRESENTATION_CONTEXT ( 'NONE', 'WORKASPACE' ) );
#80 = UNCERTAINTY_MEASURE_WITH_UNIT (LENGTH_MEASURE( 1.000000000000000082E-05 ), #46, 'distance_accuracy_value', 'NONE');
#81 = FILL_AREA_STYLE ('',( #144 ) ) ;
#82 = PRESENTATION_LAYER_ASSIGNMENT (  '', '', ( #156 ) ) ;
#83 = EDGE_CURVE ( 'NONE', #16, #2, #131, .T. ) ;
#84 = CARTESIAN_POINT ( 'NONE',  ( 7.000000000000000000, 8.572527594031473190E-16, 500.0000000000000000 ) ) ;
#85 = PRESENTATION_LAYER_ASSIGNMENT (  '', '', ( #147 ) ) ;
#86 = COLOUR_RGB ( '',0.7921568627450980005, 0.8196078431372548767, 0.9333333333333333481 ) ;
#87 = FILL_AREA_STYLE ('',( #73 ) ) ;
#88 = FILL_AREA_STYLE_COLOUR ( '', #122 ) ;
#89 = PRESENTATION_STYLE_ASSIGNMENT (( #10 ) ) ;
#90 = CARTESIAN_POINT ( 'NONE',  ( 0.000000000000000000, 0.000000000000000000, 500.0000000000000000 ) ) ;
#91 = EDGE_LOOP ( 'NONE', ( #124, #187, #185, #106 ) ) ;
#92 = PRODUCT_DEFINITION_SHAPE ( 'NONE', 'NONE',  #39 ) ;
#93 = STYLED_ITEM ( 'NONE', ( #97 ), #189 ) ;
#94 =( NAMED_UNIT ( * ) PLANE_ANGLE_UNIT ( ) SI_UNIT ( $, .RADIAN. ) );
#95 = SURFACE_SIDE_STYLE ('',( #61 ) ) ;
#96 = FACE_OUTER_BOUND ( 'NONE', #91, .T. ) ;
#97 = PRESENTATION_STYLE_ASSIGNMENT (( #133 ) ) ;
#98 = DIRECTION ( 'NONE',  ( -0.000000000000000000, -0.000000000000000000, -1.000000000000000000 ) ) ;
#99 = MECHANICAL_DESIGN_GEOMETRIC_PRESENTATION_REPRESENTATION (  '', ( #126 ), #164 ) ;
#100 = DIRECTION ( 'NONE',  ( 0.000000000000000000, 0.000000000000000000, 1.000000000000000000 ) ) ;
#101 =( LENGTH_UNIT ( ) NAMED_UNIT ( * ) SI_UNIT ( .MILLI., .METRE. ) );
#102 = MECHANICAL_DESIGN_GEOMETRIC_PRESENTATION_REPRESENTATION (  '', ( #121 ), #128 ) ;
#103 = AXIS2_PLACEMENT_3D ( 'NONE', #28, #150, #132 ) ;
#104 = PRODUCT_DEFINITION_FORMATION_WITH_SPECIFIED_SOURCE ( 'ANY', '', #1, .NOT_KNOWN. ) ;
#105 = FACE_OUTER_BOUND ( 'NONE', #186, .T. ) ;
#106 = ORIENTED_EDGE ( 'NONE', *, *, #123, .F. ) ;
#107 = COLOUR_RGB ( '',0.8980392156862745390, 0.8980392156862745390, 0.8980392156862745390 ) ;
#108 = ORIENTED_EDGE ( 'NONE', *, *, #62, .F. ) ;
#109 = AXIS2_PLACEMENT_3D ( 'NONE', #35, #127, #69 ) ;
#110 = MANIFOLD_SOLID_BREP ( 'Boss-Extrude1', #190 ) ;
#111 = PRESENTATION_STYLE_ASSIGNMENT (( #63 ) ) ;
#112 = CARTESIAN_POINT ( 'NONE',  ( 0.000000000000000000, 0.000000000000000000, 0.000000000000000000 ) ) ;
#113 = SURFACE_SIDE_STYLE ('',( #180 ) ) ;
#114 =( LENGTH_UNIT ( ) NAMED_UNIT ( * ) SI_UNIT ( .MILLI., .METRE. ) );
#115 = CARTESIAN_POINT ( 'NONE',  ( -7.000000000000000000, 0.000000000000000000, 0.000000000000000000 ) ) ;
#116 = FACE_OUTER_BOUND ( 'NONE', #40, .T. ) ;
#117 = CARTESIAN_POINT ( 'NONE',  ( 0.000000000000000000, 0.000000000000000000, 500.0000000000000000 ) ) ;
#118 = PRESENTATION_STYLE_ASSIGNMENT (( #182 ) ) ;
#119 = ADVANCED_FACE ( 'NONE', ( #96 ), #145, .T. ) ;
#120 = LINE ( 'NONE', #153, #47 ) ;
#121 = STYLED_ITEM ( 'NONE', ( #74 ), #27 ) ;
#122 = COLOUR_RGB ( '',0.8980392156862745390, 0.8980392156862745390, 0.8980392156862745390 ) ;
#123 = EDGE_CURVE ( 'NONE', #58, #57, #120, .T. ) ;
#124 = ORIENTED_EDGE ( 'NONE', *, *, #162, .F. ) ;
#125 = ORIENTED_EDGE ( 'NONE', *, *, #56, .T. ) ;
#126 = STYLED_ITEM ( 'NONE', ( #111 ), #119 ) ;
#127 = DIRECTION ( 'NONE',  ( 0.000000000000000000, 0.000000000000000000, 1.000000000000000000 ) ) ;
#128 =( GEOMETRIC_REPRESENTATION_CONTEXT ( 3 ) GLOBAL_UNCERTAINTY_ASSIGNED_CONTEXT ( ( #146 ) ) GLOBAL_UNIT_ASSIGNED_CONTEXT ( ( #5, #4, #20 ) ) REPRESENTATION_CONTEXT ( 'NONE', 'WORKASPACE' ) );
#129 = AXIS2_PLACEMENT_3D ( 'NONE', #36, #100, #29 ) ;
#130 = DIRECTION ( 'NONE',  ( 1.000000000000000000, 0.000000000000000000, 0.000000000000000000 ) ) ;
#131 = LINE ( 'NONE', #84, #44 ) ;
#132 = DIRECTION ( 'NONE',  ( -1.000000000000000000, 0.000000000000000000, 0.000000000000000000 ) ) ;
#133 = SURFACE_STYLE_USAGE ( .BOTH. , #149 ) ;
#134 = PRODUCT_RELATED_PRODUCT_CATEGORY ( 'part', '', ( #1 ) ) ;
#135 =( NAMED_UNIT ( * ) SI_UNIT ( $, .STERADIAN. ) SOLID_ANGLE_UNIT ( ) );
#136 = APPLICATION_PROTOCOL_DEFINITION ( 'draft international standard', 'automotive_design', 1998, #23 ) ;
#137 = COLOUR_RGB ( '',0.7921568627450980005, 0.8196078431372548767, 0.9333333333333333481 ) ;
#138 = AXIS2_PLACEMENT_3D ( 'NONE', #196, #7, #130 ) ;
#139 = AXIS2_PLACEMENT_3D ( 'NONE', #25, #160, #142 ) ;
#140 = EDGE_CURVE ( 'NONE', #58, #16, #32, .T. ) ;
#141 = PRODUCT_DEFINITION_CONTEXT ( 'detailed design', #23, 'design' ) ;
#142 = DIRECTION ( 'NONE',  ( 1.000000000000000000, 0.000000000000000000, -0.000000000000000000 ) ) ;
#143 = COLOUR_RGB ( '',0.8980392156862745390, 0.8980392156862745390, 0.8980392156862745390 ) ;
#144 = FILL_AREA_STYLE_COLOUR ( '', #143 ) ;
#145 = CYLINDRICAL_SURFACE ( 'NONE', #66, 7.000000000000000000 ) ;
#146 = UNCERTAINTY_MEASURE_WITH_UNIT (LENGTH_MEASURE( 1.000000000000000082E-05 ), #5, 'distance_accuracy_value', 'NONE');
#147 = STYLED_ITEM ( 'NONE', ( #89 ), #157 ) ;
#148 =( GEOMETRIC_REPRESENTATION_CONTEXT ( 3 ) GLOBAL_UNCERTAINTY_ASSIGNED_CONTEXT ( ( #18 ) ) GLOBAL_UNIT_ASSIGNED_CONTEXT ( ( #193, #50, #135 ) ) REPRESENTATION_CONTEXT ( 'NONE', 'WORKASPACE' ) );
#149 = SURFACE_SIDE_STYLE ('',( #30 ) ) ;
#150 = DIRECTION ( 'NONE',  ( -0.000000000000000000, -0.000000000000000000, -1.000000000000000000 ) ) ;
#151 = PLANE ( 'NONE',  #76 ) ;
#152 = DIRECTION ( 'NONE',  ( -1.000000000000000000, 0.000000000000000000, 0.000000000000000000 ) ) ;
#153 = CARTESIAN_POINT ( 'NONE',  ( -7.000000000000000000, 0.000000000000000000, 500.0000000000000000 ) ) ;
#154 = APPLICATION_PROTOCOL_DEFINITION ( 'draft international standard', 'automotive_design', 1998, #55 ) ;
#155 = CARTESIAN_POINT ( 'NONE',  ( 7.000000000000000000, 8.572527594031473190E-16, 0.000000000000000000 ) ) ;
#156 = STYLED_ITEM ( 'NONE', ( #176 ), #110 ) ;
#157 = ADVANCED_FACE ( 'NONE', ( #51 ), #169, .T. ) ;
#158 = ORIENTED_EDGE ( 'NONE', *, *, #56, .F. ) ;
#159 = FILL_AREA_STYLE ('',( #31 ) ) ;
#160 = DIRECTION ( 'NONE',  ( 0.000000000000000000, 0.000000000000000000, 1.000000000000000000 ) ) ;
#161 = DIRECTION ( 'NONE',  ( 1.000000000000000000, 0.000000000000000000, 0.000000000000000000 ) ) ;
#162 = EDGE_CURVE ( 'NONE', #16, #58, #38, .T. ) ;
#163 =( NAMED_UNIT ( * ) SI_UNIT ( $, .STERADIAN. ) SOLID_ANGLE_UNIT ( ) );
#164 =( GEOMETRIC_REPRESENTATION_CONTEXT ( 3 ) GLOBAL_UNCERTAINTY_ASSIGNED_CONTEXT ( ( #65 ) ) GLOBAL_UNIT_ASSIGNED_CONTEXT ( ( #49, #24, #177 ) ) REPRESENTATION_CONTEXT ( 'NONE', 'WORKASPACE' ) );
#165 = FILL_AREA_STYLE ('',( #88 ) ) ;
#166 =( NAMED_UNIT ( * ) SI_UNIT ( $, .STERADIAN. ) SOLID_ANGLE_UNIT ( ) );
#167 = CIRCLE ( 'NONE', #109, 7.000000000000000000 ) ;
#168 =( NAMED_UNIT ( * ) PLANE_ANGLE_UNIT ( ) SI_UNIT ( $, .RADIAN. ) );
#169 = CYLINDRICAL_SURFACE ( 'NONE', #103, 7.000000000000000000 ) ;
#170 = PLANE ( 'NONE',  #139 ) ;
#171 = COLOUR_RGB ( '',0.8980392156862745390, 0.8980392156862745390, 0.8980392156862745390 ) ;
#172 = ORIENTED_EDGE ( 'NONE', *, *, #140, .F. ) ;
#173 =( GEOMETRIC_REPRESENTATION_CONTEXT ( 3 ) GLOBAL_UNCERTAINTY_ASSIGNED_CONTEXT ( ( #3 ) ) GLOBAL_UNIT_ASSIGNED_CONTEXT ( ( #114, #195, #64 ) ) REPRESENTATION_CONTEXT ( 'NONE', 'WORKASPACE' ) );
#174 = SURFACE_STYLE_FILL_AREA ( #159 ) ;
#175 = AXIS2_PLACEMENT_3D ( 'NONE', #112, #43, #161 ) ;
#176 = PRESENTATION_STYLE_ASSIGNMENT (( #179 ) ) ;
#177 =( NAMED_UNIT ( * ) SI_UNIT ( $, .STERADIAN. ) SOLID_ANGLE_UNIT ( ) );
#178 = UNCERTAINTY_MEASURE_WITH_UNIT (LENGTH_MEASURE( 1.000000000000000082E-05 ), #101, 'distance_accuracy_value', 'NONE');
#179 = SURFACE_STYLE_USAGE ( .BOTH. , #95 ) ;
#180 = SURFACE_STYLE_FILL_AREA ( #48 ) ;
#181 =( LENGTH_UNIT ( ) NAMED_UNIT ( * ) SI_UNIT ( .MILLI., .METRE. ) );
#182 = SURFACE_STYLE_USAGE ( .BOTH. , #113 ) ;
#183 = DIRECTION ( 'NONE',  ( 0.000000000000000000, 0.000000000000000000, 1.000000000000000000 ) ) ;
#184 = AXIS2_PLACEMENT_3D ( 'NONE', #117, #183, #12 ) ;
#185 = ORIENTED_EDGE ( 'NONE', *, *, #62, .T. ) ;
#186 = EDGE_LOOP ( 'NONE', ( #59, #199 ) ) ;
#187 = ORIENTED_EDGE ( 'NONE', *, *, #83, .T. ) ;
#188 = PRESENTATION_LAYER_ASSIGNMENT (  '', '', ( #53 ) ) ;
#189 = ADVANCED_FACE ( 'NONE', ( #116 ), #151, .F. ) ;
#190 = CLOSED_SHELL ( 'NONE', ( #119, #157, #27, #189 ) ) ;
#191 = FILL_AREA_STYLE ('',( #34 ) ) ;
#192 = UNCERTAINTY_MEASURE_WITH_UNIT (LENGTH_MEASURE( 1.000000000000000082E-05 ), #181, 'distance_accuracy_value', 'NONE');
#193 =( LENGTH_UNIT ( ) NAMED_UNIT ( * ) SI_UNIT ( .MILLI., .METRE. ) );
#194 = SURFACE_SIDE_STYLE ('',( #45 ) ) ;
#195 =( NAMED_UNIT ( * ) PLANE_ANGLE_UNIT ( ) SI_UNIT ( $, .RADIAN. ) );
#196 = CARTESIAN_POINT ( 'NONE',  ( 0.000000000000000000, 0.000000000000000000, 500.0000000000000000 ) ) ;
#197 =( NAMED_UNIT ( * ) PLANE_ANGLE_UNIT ( ) SI_UNIT ( $, .RADIAN. ) );
#198 =( GEOMETRIC_REPRESENTATION_CONTEXT ( 3 ) GLOBAL_UNCERTAINTY_ASSIGNED_CONTEXT ( ( #192 ) ) GLOBAL_UNIT_ASSIGNED_CONTEXT ( ( #181, #197, #166 ) ) REPRESENTATION_CONTEXT ( 'NONE', 'WORKASPACE' ) );
#199 = ORIENTED_EDGE ( 'NONE', *, *, #162, .T. ) ;
#200 = PRESENTATION_LAYER_ASSIGNMENT (  '', '', ( #121 ) ) ;
ENDSEC;
END-ISO-10303-21;
