ISO-10303-21;
HEADER;
FILE_DESCRIPTION (( 'STEP AP214' ),
    '1' );
FILE_NAME ('W8.STEP',
    '2021-12-29T07:49:17',
    ( '' ),
    ( '' ),
    'SwSTEP 2.0',
    'SolidWorks 2020',
    '' );
FILE_SCHEMA (( 'AUTOMOTIVE_DESIGN' ));
ENDSEC;

DATA;
#1 = CARTESIAN_POINT ( 'NONE',  ( 0.000000000000000000, 0.000000000000000000, 500.0000000000000000 ) ) ;
#2 = DIRECTION ( 'NONE',  ( 0.000000000000000000, 0.000000000000000000, 1.000000000000000000 ) ) ;
#3 =( GEOMETRIC_REPRESENTATION_CONTEXT ( 3 ) GLOBAL_UNCERTAINTY_ASSIGNED_CONTEXT ( ( #159 ) ) GLOBAL_UNIT_ASSIGNED_CONTEXT ( ( #8, #41, #184 ) ) REPRESENTATION_CONTEXT ( 'NONE', 'WORKASPACE' ) );
#4 = PRODUCT_DEFINITION_SHAPE ( 'NONE', 'NONE',  #109 ) ;
#5 = SURFACE_STYLE_FILL_AREA ( #21 ) ;
#6 = LINE ( 'NONE', #55, #30 ) ;
#7 = EDGE_LOOP ( 'NONE', ( #49, #72, #166, #178 ) ) ;
#8 =( LENGTH_UNIT ( ) NAMED_UNIT ( * ) SI_UNIT ( .MILLI., .METRE. ) );
#9 = SURFACE_SIDE_STYLE ('',( #68 ) ) ;
#10 = DIRECTION ( 'NONE',  ( 0.000000000000000000, 0.000000000000000000, 1.000000000000000000 ) ) ;
#11 = PRODUCT_CONTEXT ( 'NONE', #133, 'mechanical' ) ;
#12 = PRODUCT_DEFINITION_FORMATION_WITH_SPECIFIED_SOURCE ( 'ANY', '', #128, .NOT_KNOWN. ) ;
#13 = PLANE ( 'NONE',  #63 ) ;
#14 =( NAMED_UNIT ( * ) PLANE_ANGLE_UNIT ( ) SI_UNIT ( $, .RADIAN. ) );
#15 = CARTESIAN_POINT ( 'NONE',  ( -4.000000000000000000, 0.000000000000000000, 500.0000000000000000 ) ) ;
#16 = PRODUCT_DEFINITION_CONTEXT ( 'detailed design', #18, 'design' ) ;
#17 = FILL_AREA_STYLE_COLOUR ( '', #137 ) ;
#18 = APPLICATION_CONTEXT ( 'automotive_design' ) ;
#19 = STYLED_ITEM ( 'NONE', ( #122 ), #163 ) ;
#20 = SURFACE_STYLE_USAGE ( .BOTH. , #130 ) ;
#21 = FILL_AREA_STYLE ('',( #165 ) ) ;
#22 = VERTEX_POINT ( 'NONE', #132 ) ;
#23 = DIRECTION ( 'NONE',  ( -1.000000000000000000, 0.000000000000000000, 0.000000000000000000 ) ) ;
#24 = FACE_OUTER_BOUND ( 'NONE', #149, .T. ) ;
#25 = CARTESIAN_POINT ( 'NONE',  ( 0.000000000000000000, 0.000000000000000000, 0.000000000000000000 ) ) ;
#26 = CARTESIAN_POINT ( 'NONE',  ( 0.000000000000000000, 0.000000000000000000, 0.000000000000000000 ) ) ;
#27 = CARTESIAN_POINT ( 'NONE',  ( 0.000000000000000000, 0.000000000000000000, 500.0000000000000000 ) ) ;
#28 = COLOUR_RGB ( '',0.8980392156862745390, 0.8980392156862745390, 0.8980392156862745390 ) ;
#29 = PRODUCT_RELATED_PRODUCT_CATEGORY ( 'part', '', ( #128 ) ) ;
#30 = VECTOR ( 'NONE', #65, 1000.000000000000000 ) ;
#31 = EDGE_CURVE ( 'NONE', #22, #78, #6, .T. ) ;
#32 = UNCERTAINTY_MEASURE_WITH_UNIT (LENGTH_MEASURE( 1.000000000000000082E-05 ), #39, 'distance_accuracy_value', 'NONE');
#33 = DIRECTION ( 'NONE',  ( 0.000000000000000000, 0.000000000000000000, 1.000000000000000000 ) ) ;
#34 = DIRECTION ( 'NONE',  ( -0.000000000000000000, -0.000000000000000000, -1.000000000000000000 ) ) ;
#35 = FILL_AREA_STYLE_COLOUR ( '', #121 ) ;
#36 =( LENGTH_UNIT ( ) NAMED_UNIT ( * ) SI_UNIT ( .MILLI., .METRE. ) );
#37 = PRESENTATION_LAYER_ASSIGNMENT (  '', '', ( #19 ) ) ;
#38 = ORIENTED_EDGE ( 'NONE', *, *, #31, .F. ) ;
#39 =( LENGTH_UNIT ( ) NAMED_UNIT ( * ) SI_UNIT ( .MILLI., .METRE. ) );
#40 = AXIS2_PLACEMENT_3D ( 'NONE', #174, #33, #105 ) ;
#41 =( NAMED_UNIT ( * ) PLANE_ANGLE_UNIT ( ) SI_UNIT ( $, .RADIAN. ) );
#42 = DIRECTION ( 'NONE',  ( 1.000000000000000000, 0.000000000000000000, -0.000000000000000000 ) ) ;
#43 = CARTESIAN_POINT ( 'NONE',  ( 0.000000000000000000, 0.000000000000000000, 0.000000000000000000 ) ) ;
#44 = STYLED_ITEM ( 'NONE', ( #91 ), #156 ) ;
#45 = STYLED_ITEM ( 'NONE', ( #77 ), #51 ) ;
#46 = UNCERTAINTY_MEASURE_WITH_UNIT (LENGTH_MEASURE( 1.000000000000000082E-05 ), #36, 'distance_accuracy_value', 'NONE');
#47 = MECHANICAL_DESIGN_GEOMETRIC_PRESENTATION_REPRESENTATION (  '', ( #19 ), #3 ) ;
#48 = UNCERTAINTY_MEASURE_WITH_UNIT (LENGTH_MEASURE( 1.000000000000000082E-05 ), #197, 'distance_accuracy_value', 'NONE');
#49 = ORIENTED_EDGE ( 'NONE', *, *, #84, .F. ) ;
#50 = PLANE ( 'NONE',  #40 ) ;
#51 = ADVANCED_FACE ( 'NONE', ( #194 ), #50, .F. ) ;
#52 = MECHANICAL_DESIGN_GEOMETRIC_PRESENTATION_REPRESENTATION (  '', ( #88 ), #158 ) ;
#53 = ORIENTED_EDGE ( 'NONE', *, *, #185, .T. ) ;
#54 = AXIS2_PLACEMENT_3D ( 'NONE', #27, #115, #169 ) ;
#55 = CARTESIAN_POINT ( 'NONE',  ( 4.000000000000000000, 4.898587196589412829E-16, 500.0000000000000000 ) ) ;
#56 =( LENGTH_UNIT ( ) NAMED_UNIT ( * ) SI_UNIT ( .MILLI., .METRE. ) );
#57 =( GEOMETRIC_REPRESENTATION_CONTEXT ( 3 ) GLOBAL_UNCERTAINTY_ASSIGNED_CONTEXT ( ( #32 ) ) GLOBAL_UNIT_ASSIGNED_CONTEXT ( ( #39, #152, #96 ) ) REPRESENTATION_CONTEXT ( 'NONE', 'WORKASPACE' ) );
#58 = DIRECTION ( 'NONE',  ( 0.000000000000000000, 0.000000000000000000, 1.000000000000000000 ) ) ;
#59 = MECHANICAL_DESIGN_GEOMETRIC_PRESENTATION_REPRESENTATION (  '', ( #44 ), #100 ) ;
#60 = SURFACE_STYLE_USAGE ( .BOTH. , #89 ) ;
#61 = CIRCLE ( 'NONE', #157, 4.000000000000000000 ) ;
#62 = DIRECTION ( 'NONE',  ( 1.000000000000000000, 0.000000000000000000, 0.000000000000000000 ) ) ;
#63 = AXIS2_PLACEMENT_3D ( 'NONE', #117, #186, #42 ) ;
#64 = ORIENTED_EDGE ( 'NONE', *, *, #198, .F. ) ;
#65 = DIRECTION ( 'NONE',  ( -0.000000000000000000, -0.000000000000000000, -1.000000000000000000 ) ) ;
#66 = SURFACE_SIDE_STYLE ('',( #196 ) ) ;
#67 =( NAMED_UNIT ( * ) PLANE_ANGLE_UNIT ( ) SI_UNIT ( $, .RADIAN. ) );
#68 = SURFACE_STYLE_FILL_AREA ( #134 ) ;
#69 = PRESENTATION_LAYER_ASSIGNMENT (  '', '', ( #120 ) ) ;
#70 = PRESENTATION_LAYER_ASSIGNMENT (  '', '', ( #88 ) ) ;
#71 =( GEOMETRIC_REPRESENTATION_CONTEXT ( 3 ) GLOBAL_UNCERTAINTY_ASSIGNED_CONTEXT ( ( #48 ) ) GLOBAL_UNIT_ASSIGNED_CONTEXT ( ( #197, #67, #136 ) ) REPRESENTATION_CONTEXT ( 'NONE', 'WORKASPACE' ) );
#72 = ORIENTED_EDGE ( 'NONE', *, *, #31, .T. ) ;
#73 = COLOUR_RGB ( '',0.8980392156862745390, 0.8980392156862745390, 0.8980392156862745390 ) ;
#74 = LINE ( 'NONE', #126, #182 ) ;
#75 = SURFACE_STYLE_FILL_AREA ( #125 ) ;
#76 = SURFACE_STYLE_USAGE ( .BOTH. , #164 ) ;
#77 = PRESENTATION_STYLE_ASSIGNMENT (( #20 ) ) ;
#78 = VERTEX_POINT ( 'NONE', #90 ) ;
#79 = ORIENTED_EDGE ( 'NONE', *, *, #84, .T. ) ;
#80 = DIRECTION ( 'NONE',  ( 1.000000000000000000, 0.000000000000000000, 0.000000000000000000 ) ) ;
#81 = SURFACE_STYLE_USAGE ( .BOTH. , #66 ) ;
#82 = DIRECTION ( 'NONE',  ( 1.000000000000000000, 0.000000000000000000, 0.000000000000000000 ) ) ;
#83 = FILL_AREA_STYLE_COLOUR ( '', #177 ) ;
#84 = EDGE_CURVE ( 'NONE', #22, #93, #61, .T. ) ;
#85 = AXIS2_PLACEMENT_3D ( 'NONE', #1, #34, #161 ) ;
#86 = PRESENTATION_LAYER_ASSIGNMENT (  '', '', ( #44 ) ) ;
#87 = UNCERTAINTY_MEASURE_WITH_UNIT (LENGTH_MEASURE( 1.000000000000000082E-05 ), #160, 'distance_accuracy_value', 'NONE');
#88 = STYLED_ITEM ( 'NONE', ( #168 ), #119 ) ;
#89 = SURFACE_SIDE_STYLE ('',( #190 ) ) ;
#90 = CARTESIAN_POINT ( 'NONE',  ( 4.000000000000000000, 4.898587196589412829E-16, 0.000000000000000000 ) ) ;
#91 = PRESENTATION_STYLE_ASSIGNMENT (( #76 ) ) ;
#92 = DIRECTION ( 'NONE',  ( -0.000000000000000000, -0.000000000000000000, -1.000000000000000000 ) ) ;
#93 = VERTEX_POINT ( 'NONE', #15 ) ;
#94 = DIRECTION ( 'NONE',  ( 0.000000000000000000, 0.000000000000000000, 1.000000000000000000 ) ) ;
#95 = FILL_AREA_STYLE_COLOUR ( '', #73 ) ;
#96 =( NAMED_UNIT ( * ) SI_UNIT ( $, .STERADIAN. ) SOLID_ANGLE_UNIT ( ) );
#97 = CARTESIAN_POINT ( 'NONE',  ( -4.000000000000000000, 0.000000000000000000, 0.000000000000000000 ) ) ;
#98 = PRESENTATION_LAYER_ASSIGNMENT (  '', '', ( #140 ) ) ;
#99 = FACE_OUTER_BOUND ( 'NONE', #111, .T. ) ;
#100 =( GEOMETRIC_REPRESENTATION_CONTEXT ( 3 ) GLOBAL_UNCERTAINTY_ASSIGNED_CONTEXT ( ( #46 ) ) GLOBAL_UNIT_ASSIGNED_CONTEXT ( ( #36, #175, #127 ) ) REPRESENTATION_CONTEXT ( 'NONE', 'WORKASPACE' ) );
#101 = APPLICATION_PROTOCOL_DEFINITION ( 'draft international standard', 'automotive_design', 1998, #18 ) ;
#102 = COLOUR_RGB ( '',0.8980392156862745390, 0.8980392156862745390, 0.8980392156862745390 ) ;
#103 = EDGE_CURVE ( 'NONE', #93, #193, #74, .T. ) ;
#104 =( GEOMETRIC_REPRESENTATION_CONTEXT ( 3 ) GLOBAL_UNCERTAINTY_ASSIGNED_CONTEXT ( ( #87 ) ) GLOBAL_UNIT_ASSIGNED_CONTEXT ( ( #160, #14, #106 ) ) REPRESENTATION_CONTEXT ( 'NONE', 'WORKASPACE' ) );
#105 = DIRECTION ( 'NONE',  ( 1.000000000000000000, 0.000000000000000000, -0.000000000000000000 ) ) ;
#106 =( NAMED_UNIT ( * ) SI_UNIT ( $, .STERADIAN. ) SOLID_ANGLE_UNIT ( ) );
#107 = SURFACE_STYLE_FILL_AREA ( #146 ) ;
#108 =( NAMED_UNIT ( * ) SI_UNIT ( $, .STERADIAN. ) SOLID_ANGLE_UNIT ( ) );
#109 = PRODUCT_DEFINITION ( 'UNKNOWN', '', #12, #16 ) ;
#110 = ORIENTED_EDGE ( 'NONE', *, *, #185, .F. ) ;
#111 = EDGE_LOOP ( 'NONE', ( #38, #110, #150, #180 ) ) ;
#112 = CARTESIAN_POINT ( 'NONE',  ( 0.000000000000000000, 0.000000000000000000, 500.0000000000000000 ) ) ;
#113 = CLOSED_SHELL ( 'NONE', ( #162, #139, #119, #51 ) ) ;
#114 = CYLINDRICAL_SURFACE ( 'NONE', #188, 4.000000000000000000 ) ;
#115 = DIRECTION ( 'NONE',  ( 0.000000000000000000, 0.000000000000000000, 1.000000000000000000 ) ) ;
#116 = AXIS2_PLACEMENT_3D ( 'NONE', #26, #94, #80 ) ;
#117 = CARTESIAN_POINT ( 'NONE',  ( 0.000000000000000000, 0.000000000000000000, 500.0000000000000000 ) ) ;
#118 = SHAPE_DEFINITION_REPRESENTATION ( #4, #156 ) ;
#119 = ADVANCED_FACE ( 'NONE', ( #24 ), #13, .T. ) ;
#120 = STYLED_ITEM ( 'NONE', ( #173 ), #162 ) ;
#121 = COLOUR_RGB ( '',0.7921568627450980005, 0.8196078431372548767, 0.9333333333333333481 ) ;
#122 = PRESENTATION_STYLE_ASSIGNMENT (( #142 ) ) ;
#123 =( GEOMETRIC_REPRESENTATION_CONTEXT ( 3 ) GLOBAL_UNCERTAINTY_ASSIGNED_CONTEXT ( ( #124 ) ) GLOBAL_UNIT_ASSIGNED_CONTEXT ( ( #192, #176, #108 ) ) REPRESENTATION_CONTEXT ( 'NONE', 'WORKASPACE' ) );
#124 = UNCERTAINTY_MEASURE_WITH_UNIT (LENGTH_MEASURE( 1.000000000000000082E-05 ), #192, 'distance_accuracy_value', 'NONE');
#125 = FILL_AREA_STYLE ('',( #17 ) ) ;
#126 = CARTESIAN_POINT ( 'NONE',  ( -4.000000000000000000, 0.000000000000000000, 500.0000000000000000 ) ) ;
#127 =( NAMED_UNIT ( * ) SI_UNIT ( $, .STERADIAN. ) SOLID_ANGLE_UNIT ( ) );
#128 = PRODUCT ( 'W8', 'W8', '', ( #11 ) ) ;
#129 = MECHANICAL_DESIGN_GEOMETRIC_PRESENTATION_REPRESENTATION (  '', ( #140 ), #57 ) ;
#130 = SURFACE_SIDE_STYLE ('',( #5 ) ) ;
#131 = EDGE_LOOP ( 'NONE', ( #64, #144 ) ) ;
#132 = CARTESIAN_POINT ( 'NONE',  ( 4.000000000000000000, 4.898587196589412829E-16, 500.0000000000000000 ) ) ;
#133 = APPLICATION_CONTEXT ( 'automotive_design' ) ;
#134 = FILL_AREA_STYLE ('',( #135 ) ) ;
#135 = FILL_AREA_STYLE_COLOUR ( '', #28 ) ;
#136 =( NAMED_UNIT ( * ) SI_UNIT ( $, .STERADIAN. ) SOLID_ANGLE_UNIT ( ) );
#137 = COLOUR_RGB ( '',0.7921568627450980005, 0.8196078431372548767, 0.9333333333333333481 ) ;
#138 = DIRECTION ( 'NONE',  ( 1.000000000000000000, 0.000000000000000000, 0.000000000000000000 ) ) ;
#139 = ADVANCED_FACE ( 'NONE', ( #99 ), #114, .T. ) ;
#140 = STYLED_ITEM ( 'NONE', ( #195 ), #139 ) ;
#141 = UNCERTAINTY_MEASURE_WITH_UNIT (LENGTH_MEASURE( 1.000000000000000082E-05 ), #56, 'distance_accuracy_value', 'NONE');
#142 = SURFACE_STYLE_USAGE ( .BOTH. , #145 ) ;
#143 = CYLINDRICAL_SURFACE ( 'NONE', #85, 4.000000000000000000 ) ;
#144 = ORIENTED_EDGE ( 'NONE', *, *, #148, .F. ) ;
#145 = SURFACE_SIDE_STYLE ('',( #75 ) ) ;
#146 = FILL_AREA_STYLE ('',( #35 ) ) ;
#147 = MECHANICAL_DESIGN_GEOMETRIC_PRESENTATION_REPRESENTATION (  '', ( #120 ), #104 ) ;
#148 = EDGE_CURVE ( 'NONE', #78, #193, #199, .T. ) ;
#149 = EDGE_LOOP ( 'NONE', ( #53, #79 ) ) ;
#150 = ORIENTED_EDGE ( 'NONE', *, *, #103, .T. ) ;
#151 = SURFACE_STYLE_USAGE ( .BOTH. , #9 ) ;
#152 =( NAMED_UNIT ( * ) PLANE_ANGLE_UNIT ( ) SI_UNIT ( $, .RADIAN. ) );
#153 = CIRCLE ( 'NONE', #54, 4.000000000000000000 ) ;
#154 = APPLICATION_PROTOCOL_DEFINITION ( 'draft international standard', 'automotive_design', 1998, #133 ) ;
#155 =( NAMED_UNIT ( * ) SI_UNIT ( $, .STERADIAN. ) SOLID_ANGLE_UNIT ( ) );
#156 = ADVANCED_BREP_SHAPE_REPRESENTATION ( 'W8', ( #163, #189 ), #71 ) ;
#157 = AXIS2_PLACEMENT_3D ( 'NONE', #191, #2, #62 ) ;
#158 =( GEOMETRIC_REPRESENTATION_CONTEXT ( 3 ) GLOBAL_UNCERTAINTY_ASSIGNED_CONTEXT ( ( #141 ) ) GLOBAL_UNIT_ASSIGNED_CONTEXT ( ( #56, #200, #155 ) ) REPRESENTATION_CONTEXT ( 'NONE', 'WORKASPACE' ) );
#159 = UNCERTAINTY_MEASURE_WITH_UNIT (LENGTH_MEASURE( 1.000000000000000082E-05 ), #8, 'distance_accuracy_value', 'NONE');
#160 =( LENGTH_UNIT ( ) NAMED_UNIT ( * ) SI_UNIT ( .MILLI., .METRE. ) );
#161 = DIRECTION ( 'NONE',  ( -1.000000000000000000, 0.000000000000000000, 0.000000000000000000 ) ) ;
#162 = ADVANCED_FACE ( 'NONE', ( #183 ), #143, .T. ) ;
#163 = MANIFOLD_SOLID_BREP ( 'Boss-Extrude1', #113 ) ;
#164 = SURFACE_SIDE_STYLE ('',( #107 ) ) ;
#165 = FILL_AREA_STYLE_COLOUR ( '', #102 ) ;
#166 = ORIENTED_EDGE ( 'NONE', *, *, #148, .T. ) ;
#167 = DIRECTION ( 'NONE',  ( -0.000000000000000000, -0.000000000000000000, -1.000000000000000000 ) ) ;
#168 = PRESENTATION_STYLE_ASSIGNMENT (( #81 ) ) ;
#169 = DIRECTION ( 'NONE',  ( 1.000000000000000000, 0.000000000000000000, 0.000000000000000000 ) ) ;
#170 = FILL_AREA_STYLE ('',( #83 ) ) ;
#171 = AXIS2_PLACEMENT_3D ( 'NONE', #25, #10, #82 ) ;
#172 = MECHANICAL_DESIGN_GEOMETRIC_PRESENTATION_REPRESENTATION (  '', ( #45 ), #123 ) ;
#173 = PRESENTATION_STYLE_ASSIGNMENT (( #60 ) ) ;
#174 = CARTESIAN_POINT ( 'NONE',  ( 0.000000000000000000, 0.000000000000000000, 0.000000000000000000 ) ) ;
#175 =( NAMED_UNIT ( * ) PLANE_ANGLE_UNIT ( ) SI_UNIT ( $, .RADIAN. ) );
#176 =( NAMED_UNIT ( * ) PLANE_ANGLE_UNIT ( ) SI_UNIT ( $, .RADIAN. ) );
#177 = COLOUR_RGB ( '',0.8980392156862745390, 0.8980392156862745390, 0.8980392156862745390 ) ;
#178 = ORIENTED_EDGE ( 'NONE', *, *, #103, .F. ) ;
#179 = CIRCLE ( 'NONE', #171, 4.000000000000000000 ) ;
#180 = ORIENTED_EDGE ( 'NONE', *, *, #198, .T. ) ;
#181 = FILL_AREA_STYLE ('',( #95 ) ) ;
#182 = VECTOR ( 'NONE', #92, 1000.000000000000000 ) ;
#183 = FACE_OUTER_BOUND ( 'NONE', #7, .T. ) ;
#184 =( NAMED_UNIT ( * ) SI_UNIT ( $, .STERADIAN. ) SOLID_ANGLE_UNIT ( ) );
#185 = EDGE_CURVE ( 'NONE', #93, #22, #153, .T. ) ;
#186 = DIRECTION ( 'NONE',  ( 0.000000000000000000, 0.000000000000000000, 1.000000000000000000 ) ) ;
#187 = PRESENTATION_LAYER_ASSIGNMENT (  '', '', ( #45 ) ) ;
#188 = AXIS2_PLACEMENT_3D ( 'NONE', #112, #167, #23 ) ;
#189 = AXIS2_PLACEMENT_3D ( 'NONE', #43, #58, #138 ) ;
#190 = SURFACE_STYLE_FILL_AREA ( #170 ) ;
#191 = CARTESIAN_POINT ( 'NONE',  ( 0.000000000000000000, 0.000000000000000000, 500.0000000000000000 ) ) ;
#192 =( LENGTH_UNIT ( ) NAMED_UNIT ( * ) SI_UNIT ( .MILLI., .METRE. ) );
#193 = VERTEX_POINT ( 'NONE', #97 ) ;
#194 = FACE_OUTER_BOUND ( 'NONE', #131, .T. ) ;
#195 = PRESENTATION_STYLE_ASSIGNMENT (( #151 ) ) ;
#196 = SURFACE_STYLE_FILL_AREA ( #181 ) ;
#197 =( LENGTH_UNIT ( ) NAMED_UNIT ( * ) SI_UNIT ( .MILLI., .METRE. ) );
#198 = EDGE_CURVE ( 'NONE', #193, #78, #179, .T. ) ;
#199 = CIRCLE ( 'NONE', #116, 4.000000000000000000 ) ;
#200 =( NAMED_UNIT ( * ) PLANE_ANGLE_UNIT ( ) SI_UNIT ( $, .RADIAN. ) );
ENDSEC;
END-ISO-10303-21;
