ISO-10303-21;
HEADER;
FILE_DESCRIPTION (( 'STEP AP214' ),
    '1' );
FILE_NAME ('W30.STEP',
    '2021-12-29T08:11:15',
    ( '' ),
    ( '' ),
    'SwSTEP 2.0',
    'SolidWorks 2020',
    '' );
FILE_SCHEMA (( 'AUTOMOTIVE_DESIGN' ));
ENDSEC;

DATA;
#1 = PRODUCT_CONTEXT ( 'NONE', #72, 'mechanical' ) ;
#2 = DIRECTION ( 'NONE',  ( 0.000000000000000000, 0.000000000000000000, 1.000000000000000000 ) ) ;
#3 = AXIS2_PLACEMENT_3D ( 'NONE', #85, #62, #18 ) ;
#4 = LINE ( 'NONE', #63, #53 ) ;
#5 = CARTESIAN_POINT ( 'NONE',  ( -15.00000000000000000, 0.000000000000000000, 0.000000000000000000 ) ) ;
#6 = PRODUCT ( 'W30', 'W30', '', ( #1 ) ) ;
#7 = SURFACE_STYLE_FILL_AREA ( #114 ) ;
#8 = EDGE_CURVE ( 'NONE', #83, #131, #61, .T. ) ;
#9 = ORIENTED_EDGE ( 'NONE', *, *, #8, .F. ) ;
#10 = COLOUR_RGB ( '',0.7921568627450980005, 0.8196078431372548767, 0.9333333333333333481 ) ;
#11 = VERTEX_POINT ( 'NONE', #27 ) ;
#12 = ORIENTED_EDGE ( 'NONE', *, *, #52, .T. ) ;
#13 = PRODUCT_RELATED_PRODUCT_CATEGORY ( 'part', '', ( #6 ) ) ;
#14 = DIRECTION ( 'NONE',  ( -0.000000000000000000, -0.000000000000000000, -1.000000000000000000 ) ) ;
#15 = DIRECTION ( 'NONE',  ( 1.000000000000000000, 0.000000000000000000, -0.000000000000000000 ) ) ;
#16 = DIRECTION ( 'NONE',  ( 1.000000000000000000, 0.000000000000000000, 0.000000000000000000 ) ) ;
#17 = FILL_AREA_STYLE_COLOUR ( '', #10 ) ;
#18 = DIRECTION ( 'NONE',  ( 1.000000000000000000, 0.000000000000000000, 0.000000000000000000 ) ) ;
#19 = CARTESIAN_POINT ( 'NONE',  ( -15.00000000000000000, 0.000000000000000000, 2000.000000000000000 ) ) ;
#20 =( NAMED_UNIT ( * ) SI_UNIT ( $, .STERADIAN. ) SOLID_ANGLE_UNIT ( ) );
#21 = PRESENTATION_LAYER_ASSIGNMENT (  '', '', ( #57 ) ) ;
#22 = AXIS2_PLACEMENT_3D ( 'NONE', #28, #2, #132 ) ;
#23 = ORIENTED_EDGE ( 'NONE', *, *, #8, .T. ) ;
#24 = ADVANCED_FACE ( 'NONE', ( #109 ), #50, .T. ) ;
#25 = STYLED_ITEM ( 'NONE', ( #91 ), #48 ) ;
#26 = PLANE ( 'NONE',  #138 ) ;
#27 = CARTESIAN_POINT ( 'NONE',  ( 15.00000000000000000, 1.836970198721029589E-15, 0.000000000000000000 ) ) ;
#28 = CARTESIAN_POINT ( 'NONE',  ( 0.000000000000000000, 0.000000000000000000, 0.000000000000000000 ) ) ;
#29 = DIRECTION ( 'NONE',  ( -0.000000000000000000, -0.000000000000000000, -1.000000000000000000 ) ) ;
#30 = SURFACE_STYLE_FILL_AREA ( #140 ) ;
#31 = AXIS2_PLACEMENT_3D ( 'NONE', #112, #36, #110 ) ;
#32 =( GEOMETRIC_REPRESENTATION_CONTEXT ( 3 ) GLOBAL_UNCERTAINTY_ASSIGNED_CONTEXT ( ( #103 ) ) GLOBAL_UNIT_ASSIGNED_CONTEXT ( ( #65, #111, #51 ) ) REPRESENTATION_CONTEXT ( 'NONE', 'WORKASPACE' ) );
#33 = EDGE_CURVE ( 'NONE', #131, #83, #41, .T. ) ;
#34 = ORIENTED_EDGE ( 'NONE', *, *, #39, .T. ) ;
#35 = DIRECTION ( 'NONE',  ( 0.000000000000000000, 0.000000000000000000, 1.000000000000000000 ) ) ;
#36 = DIRECTION ( 'NONE',  ( 0.000000000000000000, 0.000000000000000000, 1.000000000000000000 ) ) ;
#37 = CARTESIAN_POINT ( 'NONE',  ( -15.00000000000000000, 0.000000000000000000, 2000.000000000000000 ) ) ;
#38 = FACE_OUTER_BOUND ( 'NONE', #115, .T. ) ;
#39 = EDGE_CURVE ( 'NONE', #137, #11, #113, .T. ) ;
#40 = PRODUCT_DEFINITION_SHAPE ( 'NONE', 'NONE',  #136 ) ;
#41 = CIRCLE ( 'NONE', #74, 15.00000000000000000 ) ;
#42 = ADVANCED_FACE ( 'NONE', ( #125 ), #26, .T. ) ;
#43 = EDGE_LOOP ( 'NONE', ( #116, #129, #12, #130 ) ) ;
#44 = DIRECTION ( 'NONE',  ( 1.000000000000000000, 0.000000000000000000, 0.000000000000000000 ) ) ;
#45 = DIRECTION ( 'NONE',  ( 0.000000000000000000, 0.000000000000000000, 1.000000000000000000 ) ) ;
#46 = DIRECTION ( 'NONE',  ( -0.000000000000000000, -0.000000000000000000, -1.000000000000000000 ) ) ;
#47 = VECTOR ( 'NONE', #14, 1000.000000000000000 ) ;
#48 = ADVANCED_BREP_SHAPE_REPRESENTATION ( 'W30', ( #99, #133 ), #119 ) ;
#49 = SHAPE_DEFINITION_REPRESENTATION ( #40, #48 ) ;
#50 = CYLINDRICAL_SURFACE ( 'NONE', #87, 15.00000000000000000 ) ;
#51 =( NAMED_UNIT ( * ) SI_UNIT ( $, .STERADIAN. ) SOLID_ANGLE_UNIT ( ) );
#52 = EDGE_CURVE ( 'NONE', #11, #137, #118, .T. ) ;
#53 = VECTOR ( 'NONE', #29, 1000.000000000000000 ) ;
#54 =( NAMED_UNIT ( * ) SI_UNIT ( $, .STERADIAN. ) SOLID_ANGLE_UNIT ( ) );
#55 =( GEOMETRIC_REPRESENTATION_CONTEXT ( 3 ) GLOBAL_UNCERTAINTY_ASSIGNED_CONTEXT ( ( #92 ) ) GLOBAL_UNIT_ASSIGNED_CONTEXT ( ( #100, #88, #54 ) ) REPRESENTATION_CONTEXT ( 'NONE', 'WORKASPACE' ) );
#56 = EDGE_LOOP ( 'NONE', ( #23, #69 ) ) ;
#57 = STYLED_ITEM ( 'NONE', ( #123 ), #99 ) ;
#58 = AXIS2_PLACEMENT_3D ( 'NONE', #78, #120, #106 ) ;
#59 = PRODUCT_DEFINITION_CONTEXT ( 'detailed design', #105, 'design' ) ;
#60 =( LENGTH_UNIT ( ) NAMED_UNIT ( * ) SI_UNIT ( .MILLI., .METRE. ) );
#61 = CIRCLE ( 'NONE', #79, 15.00000000000000000 ) ;
#62 = DIRECTION ( 'NONE',  ( 0.000000000000000000, 0.000000000000000000, 1.000000000000000000 ) ) ;
#63 = CARTESIAN_POINT ( 'NONE',  ( 15.00000000000000000, 1.836970198721029589E-15, 2000.000000000000000 ) ) ;
#64 = FACE_OUTER_BOUND ( 'NONE', #117, .T. ) ;
#65 =( LENGTH_UNIT ( ) NAMED_UNIT ( * ) SI_UNIT ( .MILLI., .METRE. ) );
#66 =( NAMED_UNIT ( * ) PLANE_ANGLE_UNIT ( ) SI_UNIT ( $, .RADIAN. ) );
#67 = PRODUCT_DEFINITION_FORMATION_WITH_SPECIFIED_SOURCE ( 'ANY', '', #6, .NOT_KNOWN. ) ;
#68 = EDGE_CURVE ( 'NONE', #131, #11, #4, .T. ) ;
#69 = ORIENTED_EDGE ( 'NONE', *, *, #33, .T. ) ;
#70 = ORIENTED_EDGE ( 'NONE', *, *, #93, .T. ) ;
#71 = CARTESIAN_POINT ( 'NONE',  ( 15.00000000000000000, 1.836970198721029589E-15, 2000.000000000000000 ) ) ;
#72 = APPLICATION_CONTEXT ( 'automotive_design' ) ;
#73 = DIRECTION ( 'NONE',  ( 1.000000000000000000, 0.000000000000000000, 0.000000000000000000 ) ) ;
#74 = AXIS2_PLACEMENT_3D ( 'NONE', #124, #86, #44 ) ;
#75 = LINE ( 'NONE', #37, #47 ) ;
#76 = CARTESIAN_POINT ( 'NONE',  ( 0.000000000000000000, 0.000000000000000000, 2000.000000000000000 ) ) ;
#77 = APPLICATION_PROTOCOL_DEFINITION ( 'draft international standard', 'automotive_design', 1998, #72 ) ;
#78 = CARTESIAN_POINT ( 'NONE',  ( 0.000000000000000000, 0.000000000000000000, 2000.000000000000000 ) ) ;
#79 = AXIS2_PLACEMENT_3D ( 'NONE', #94, #35, #73 ) ;
#80 = UNCERTAINTY_MEASURE_WITH_UNIT (LENGTH_MEASURE( 1.000000000000000082E-05 ), #60, 'distance_accuracy_value', 'NONE');
#81 = ADVANCED_FACE ( 'NONE', ( #64 ), #96, .F. ) ;
#82 = COLOUR_RGB ( '',0.7921568627450980005, 0.8196078431372548767, 0.9333333333333333481 ) ;
#83 = VERTEX_POINT ( 'NONE', #19 ) ;
#84 = ORIENTED_EDGE ( 'NONE', *, *, #68, .F. ) ;
#85 = CARTESIAN_POINT ( 'NONE',  ( 0.000000000000000000, 0.000000000000000000, 0.000000000000000000 ) ) ;
#86 = DIRECTION ( 'NONE',  ( 0.000000000000000000, 0.000000000000000000, 1.000000000000000000 ) ) ;
#87 = AXIS2_PLACEMENT_3D ( 'NONE', #76, #46, #95 ) ;
#88 =( NAMED_UNIT ( * ) PLANE_ANGLE_UNIT ( ) SI_UNIT ( $, .RADIAN. ) );
#89 = CARTESIAN_POINT ( 'NONE',  ( 0.000000000000000000, 0.000000000000000000, 2000.000000000000000 ) ) ;
#90 = SURFACE_SIDE_STYLE ('',( #30 ) ) ;
#91 = PRESENTATION_STYLE_ASSIGNMENT (( #135 ) ) ;
#92 = UNCERTAINTY_MEASURE_WITH_UNIT (LENGTH_MEASURE( 1.000000000000000082E-05 ), #100, 'distance_accuracy_value', 'NONE');
#93 = EDGE_CURVE ( 'NONE', #83, #137, #75, .T. ) ;
#94 = CARTESIAN_POINT ( 'NONE',  ( 0.000000000000000000, 0.000000000000000000, 2000.000000000000000 ) ) ;
#95 = DIRECTION ( 'NONE',  ( -1.000000000000000000, 0.000000000000000000, 0.000000000000000000 ) ) ;
#96 = PLANE ( 'NONE',  #31 ) ;
#97 = MECHANICAL_DESIGN_GEOMETRIC_PRESENTATION_REPRESENTATION (  '', ( #57 ), #55 ) ;
#98 = MECHANICAL_DESIGN_GEOMETRIC_PRESENTATION_REPRESENTATION (  '', ( #25 ), #32 ) ;
#99 = MANIFOLD_SOLID_BREP ( 'Boss-Extrude1', #127 ) ;
#100 =( LENGTH_UNIT ( ) NAMED_UNIT ( * ) SI_UNIT ( .MILLI., .METRE. ) );
#101 = FILL_AREA_STYLE_COLOUR ( '', #82 ) ;
#102 = ORIENTED_EDGE ( 'NONE', *, *, #52, .F. ) ;
#103 = UNCERTAINTY_MEASURE_WITH_UNIT (LENGTH_MEASURE( 1.000000000000000082E-05 ), #65, 'distance_accuracy_value', 'NONE');
#104 = ADVANCED_FACE ( 'NONE', ( #38 ), #134, .T. ) ;
#105 = APPLICATION_CONTEXT ( 'automotive_design' ) ;
#106 = DIRECTION ( 'NONE',  ( -1.000000000000000000, 0.000000000000000000, 0.000000000000000000 ) ) ;
#107 = DIRECTION ( 'NONE',  ( 0.000000000000000000, 0.000000000000000000, 1.000000000000000000 ) ) ;
#108 = CARTESIAN_POINT ( 'NONE',  ( 0.000000000000000000, 0.000000000000000000, 0.000000000000000000 ) ) ;
#109 = FACE_OUTER_BOUND ( 'NONE', #43, .T. ) ;
#110 = DIRECTION ( 'NONE',  ( 1.000000000000000000, 0.000000000000000000, -0.000000000000000000 ) ) ;
#111 =( NAMED_UNIT ( * ) PLANE_ANGLE_UNIT ( ) SI_UNIT ( $, .RADIAN. ) );
#112 = CARTESIAN_POINT ( 'NONE',  ( 0.000000000000000000, 0.000000000000000000, 0.000000000000000000 ) ) ;
#113 = CIRCLE ( 'NONE', #3, 15.00000000000000000 ) ;
#114 = FILL_AREA_STYLE ('',( #101 ) ) ;
#115 = EDGE_LOOP ( 'NONE', ( #84, #9, #70, #34 ) ) ;
#116 = ORIENTED_EDGE ( 'NONE', *, *, #33, .F. ) ;
#117 = EDGE_LOOP ( 'NONE', ( #139, #102 ) ) ;
#118 = CIRCLE ( 'NONE', #22, 15.00000000000000000 ) ;
#119 =( GEOMETRIC_REPRESENTATION_CONTEXT ( 3 ) GLOBAL_UNCERTAINTY_ASSIGNED_CONTEXT ( ( #80 ) ) GLOBAL_UNIT_ASSIGNED_CONTEXT ( ( #60, #66, #20 ) ) REPRESENTATION_CONTEXT ( 'NONE', 'WORKASPACE' ) );
#120 = DIRECTION ( 'NONE',  ( -0.000000000000000000, -0.000000000000000000, -1.000000000000000000 ) ) ;
#121 = SURFACE_STYLE_USAGE ( .BOTH. , #90 ) ;
#122 = PRESENTATION_LAYER_ASSIGNMENT (  '', '', ( #25 ) ) ;
#123 = PRESENTATION_STYLE_ASSIGNMENT (( #121 ) ) ;
#124 = CARTESIAN_POINT ( 'NONE',  ( 0.000000000000000000, 0.000000000000000000, 2000.000000000000000 ) ) ;
#125 = FACE_OUTER_BOUND ( 'NONE', #56, .T. ) ;
#126 = APPLICATION_PROTOCOL_DEFINITION ( 'draft international standard', 'automotive_design', 1998, #105 ) ;
#127 = CLOSED_SHELL ( 'NONE', ( #24, #104, #42, #81 ) ) ;
#128 = SURFACE_SIDE_STYLE ('',( #7 ) ) ;
#129 = ORIENTED_EDGE ( 'NONE', *, *, #68, .T. ) ;
#130 = ORIENTED_EDGE ( 'NONE', *, *, #93, .F. ) ;
#131 = VERTEX_POINT ( 'NONE', #71 ) ;
#132 = DIRECTION ( 'NONE',  ( 1.000000000000000000, 0.000000000000000000, 0.000000000000000000 ) ) ;
#133 = AXIS2_PLACEMENT_3D ( 'NONE', #108, #45, #16 ) ;
#134 = CYLINDRICAL_SURFACE ( 'NONE', #58, 15.00000000000000000 ) ;
#135 = SURFACE_STYLE_USAGE ( .BOTH. , #128 ) ;
#136 = PRODUCT_DEFINITION ( 'UNKNOWN', '', #67, #59 ) ;
#137 = VERTEX_POINT ( 'NONE', #5 ) ;
#138 = AXIS2_PLACEMENT_3D ( 'NONE', #89, #107, #15 ) ;
#139 = ORIENTED_EDGE ( 'NONE', *, *, #39, .F. ) ;
#140 = FILL_AREA_STYLE ('',( #17 ) ) ;
ENDSEC;
END-ISO-10303-21;
