ISO-10303-21;
HEADER;
FILE_DESCRIPTION (( 'STEP AP214' ),
    '1' );
FILE_NAME ('W12.STEP',
    '2021-12-29T07:50:09',
    ( '' ),
    ( '' ),
    'SwSTEP 2.0',
    'SolidWorks 2020',
    '' );
FILE_SCHEMA (( 'AUTOMOTIVE_DESIGN' ));
ENDSEC;

DATA;
#1 = MECHANICAL_DESIGN_GEOMETRIC_PRESENTATION_REPRESENTATION (  '', ( #124 ), #190 ) ;
#2 = PLANE ( 'NONE',  #154 ) ;
#3 =( GEOMETRIC_REPRESENTATION_CONTEXT ( 3 ) GLOBAL_UNCERTAINTY_ASSIGNED_CONTEXT ( ( #79 ) ) GLOBAL_UNIT_ASSIGNED_CONTEXT ( ( #63, #121, #157 ) ) REPRESENTATION_CONTEXT ( 'NONE', 'WORKASPACE' ) );
#4 = DIRECTION ( 'NONE',  ( -0.000000000000000000, -0.000000000000000000, -1.000000000000000000 ) ) ;
#5 = EDGE_LOOP ( 'NONE', ( #49, #98 ) ) ;
#6 = CYLINDRICAL_SURFACE ( 'NONE', #169, 6.000000000000000888 ) ;
#7 = DIRECTION ( 'NONE',  ( -0.000000000000000000, -0.000000000000000000, -1.000000000000000000 ) ) ;
#8 = CARTESIAN_POINT ( 'NONE',  ( -6.000000000000000888, 0.000000000000000000, 500.0000000000000000 ) ) ;
#9 = UNCERTAINTY_MEASURE_WITH_UNIT (LENGTH_MEASURE( 1.000000000000000082E-05 ), #58, 'distance_accuracy_value', 'NONE');
#10 = APPLICATION_PROTOCOL_DEFINITION ( 'draft international standard', 'automotive_design', 1998, #142 ) ;
#11 = MANIFOLD_SOLID_BREP ( 'Boss-Extrude1', #97 ) ;
#12 = AXIS2_PLACEMENT_3D ( 'NONE', #25, #191, #54 ) ;
#13 = FACE_OUTER_BOUND ( 'NONE', #5, .T. ) ;
#14 =( NAMED_UNIT ( * ) PLANE_ANGLE_UNIT ( ) SI_UNIT ( $, .RADIAN. ) );
#15 = STYLED_ITEM ( 'NONE', ( #96 ), #33 ) ;
#16 = SURFACE_STYLE_USAGE ( .BOTH. , #133 ) ;
#17 = MECHANICAL_DESIGN_GEOMETRIC_PRESENTATION_REPRESENTATION (  '', ( #106 ), #87 ) ;
#18 = EDGE_LOOP ( 'NONE', ( #174, #156, #20, #139 ) ) ;
#19 = SURFACE_STYLE_FILL_AREA ( #152 ) ;
#20 = ORIENTED_EDGE ( 'NONE', *, *, #73, .T. ) ;
#21 = ADVANCED_FACE ( 'NONE', ( #13 ), #170, .T. ) ;
#22 = DIRECTION ( 'NONE',  ( 1.000000000000000000, 0.000000000000000000, -0.000000000000000000 ) ) ;
#23 = ORIENTED_EDGE ( 'NONE', *, *, #196, .F. ) ;
#24 = PRESENTATION_STYLE_ASSIGNMENT (( #187 ) ) ;
#25 = CARTESIAN_POINT ( 'NONE',  ( 0.000000000000000000, 0.000000000000000000, 0.000000000000000000 ) ) ;
#26 = EDGE_CURVE ( 'NONE', #38, #153, #51, .T. ) ;
#27 = DIRECTION ( 'NONE',  ( -0.000000000000000000, -0.000000000000000000, -1.000000000000000000 ) ) ;
#28 = PRESENTATION_LAYER_ASSIGNMENT (  '', '', ( #126 ) ) ;
#29 = PRESENTATION_LAYER_ASSIGNMENT (  '', '', ( #124 ) ) ;
#30 = STYLED_ITEM ( 'NONE', ( #104 ), #165 ) ;
#31 = PRESENTATION_STYLE_ASSIGNMENT (( #200 ) ) ;
#32 = CARTESIAN_POINT ( 'NONE',  ( 0.000000000000000000, 0.000000000000000000, 0.000000000000000000 ) ) ;
#33 = ADVANCED_FACE ( 'NONE', ( #74 ), #6, .T. ) ;
#34 = ORIENTED_EDGE ( 'NONE', *, *, #26, .T. ) ;
#35 = SURFACE_SIDE_STYLE ('',( #19 ) ) ;
#36 = CARTESIAN_POINT ( 'NONE',  ( 6.000000000000000888, 7.347880794884120722E-16, 0.000000000000000000 ) ) ;
#37 = CARTESIAN_POINT ( 'NONE',  ( -6.000000000000000888, 0.000000000000000000, 0.000000000000000000 ) ) ;
#38 = VERTEX_POINT ( 'NONE', #36 ) ;
#39 = CARTESIAN_POINT ( 'NONE',  ( 0.000000000000000000, 0.000000000000000000, 500.0000000000000000 ) ) ;
#40 = PRODUCT_DEFINITION_FORMATION_WITH_SPECIFIED_SOURCE ( 'ANY', '', #46, .NOT_KNOWN. ) ;
#41 = PRODUCT_RELATED_PRODUCT_CATEGORY ( 'part', '', ( #46 ) ) ;
#42 = FILL_AREA_STYLE ('',( #123 ) ) ;
#43 = APPLICATION_PROTOCOL_DEFINITION ( 'draft international standard', 'automotive_design', 1998, #105 ) ;
#44 = CIRCLE ( 'NONE', #12, 6.000000000000000888 ) ;
#45 = MECHANICAL_DESIGN_GEOMETRIC_PRESENTATION_REPRESENTATION (  '', ( #126 ), #158 ) ;
#46 = PRODUCT ( 'W12', 'W12', '', ( #194 ) ) ;
#47 = SURFACE_STYLE_FILL_AREA ( #107 ) ;
#48 = SURFACE_STYLE_FILL_AREA ( #184 ) ;
#49 = ORIENTED_EDGE ( 'NONE', *, *, #95, .T. ) ;
#50 =( LENGTH_UNIT ( ) NAMED_UNIT ( * ) SI_UNIT ( .MILLI., .METRE. ) );
#51 = CIRCLE ( 'NONE', #162, 6.000000000000000888 ) ;
#52 = VECTOR ( 'NONE', #4, 1000.000000000000000 ) ;
#53 = PRODUCT_DEFINITION_CONTEXT ( 'detailed design', #142, 'design' ) ;
#54 = DIRECTION ( 'NONE',  ( 1.000000000000000000, 0.000000000000000000, 0.000000000000000000 ) ) ;
#55 = MECHANICAL_DESIGN_GEOMETRIC_PRESENTATION_REPRESENTATION (  '', ( #30 ), #177 ) ;
#56 = MECHANICAL_DESIGN_GEOMETRIC_PRESENTATION_REPRESENTATION (  '', ( #116 ), #77 ) ;
#57 = CIRCLE ( 'NONE', #72, 6.000000000000000888 ) ;
#58 =( LENGTH_UNIT ( ) NAMED_UNIT ( * ) SI_UNIT ( .MILLI., .METRE. ) );
#59 =( LENGTH_UNIT ( ) NAMED_UNIT ( * ) SI_UNIT ( .MILLI., .METRE. ) );
#60 = DIRECTION ( 'NONE',  ( 1.000000000000000000, 0.000000000000000000, -0.000000000000000000 ) ) ;
#61 = DIRECTION ( 'NONE',  ( -1.000000000000000000, 0.000000000000000000, 0.000000000000000000 ) ) ;
#62 = FACE_OUTER_BOUND ( 'NONE', #155, .T. ) ;
#63 =( LENGTH_UNIT ( ) NAMED_UNIT ( * ) SI_UNIT ( .MILLI., .METRE. ) );
#64 = ORIENTED_EDGE ( 'NONE', *, *, #143, .F. ) ;
#65 = FILL_AREA_STYLE ('',( #185 ) ) ;
#66 = UNCERTAINTY_MEASURE_WITH_UNIT (LENGTH_MEASURE( 1.000000000000000082E-05 ), #50, 'distance_accuracy_value', 'NONE');
#67 =( NAMED_UNIT ( * ) PLANE_ANGLE_UNIT ( ) SI_UNIT ( $, .RADIAN. ) );
#68 = COLOUR_RGB ( '',0.8980392156862745390, 0.8980392156862745390, 0.8980392156862745390 ) ;
#69 =( NAMED_UNIT ( * ) SI_UNIT ( $, .STERADIAN. ) SOLID_ANGLE_UNIT ( ) );
#70 = SURFACE_STYLE_FILL_AREA ( #115 ) ;
#71 = COLOUR_RGB ( '',0.8980392156862745390, 0.8980392156862745390, 0.8980392156862745390 ) ;
#72 = AXIS2_PLACEMENT_3D ( 'NONE', #93, #173, #122 ) ;
#73 = EDGE_CURVE ( 'NONE', #99, #153, #141, .T. ) ;
#74 = FACE_OUTER_BOUND ( 'NONE', #18, .T. ) ;
#75 = AXIS2_PLACEMENT_3D ( 'NONE', #179, #125, #127 ) ;
#76 = CARTESIAN_POINT ( 'NONE',  ( 0.000000000000000000, 0.000000000000000000, 0.000000000000000000 ) ) ;
#77 =( GEOMETRIC_REPRESENTATION_CONTEXT ( 3 ) GLOBAL_UNCERTAINTY_ASSIGNED_CONTEXT ( ( #137 ) ) GLOBAL_UNIT_ASSIGNED_CONTEXT ( ( #59, #88, #149 ) ) REPRESENTATION_CONTEXT ( 'NONE', 'WORKASPACE' ) );
#78 = CARTESIAN_POINT ( 'NONE',  ( -6.000000000000000888, 0.000000000000000000, 500.0000000000000000 ) ) ;
#79 = UNCERTAINTY_MEASURE_WITH_UNIT (LENGTH_MEASURE( 1.000000000000000082E-05 ), #63, 'distance_accuracy_value', 'NONE');
#80 =( NAMED_UNIT ( * ) SI_UNIT ( $, .STERADIAN. ) SOLID_ANGLE_UNIT ( ) );
#81 = PRESENTATION_STYLE_ASSIGNMENT (( #163 ) ) ;
#82 =( NAMED_UNIT ( * ) PLANE_ANGLE_UNIT ( ) SI_UNIT ( $, .RADIAN. ) );
#83 = SURFACE_STYLE_FILL_AREA ( #42 ) ;
#84 = SHAPE_DEFINITION_REPRESENTATION ( #198, #165 ) ;
#85 = UNCERTAINTY_MEASURE_WITH_UNIT (LENGTH_MEASURE( 1.000000000000000082E-05 ), #90, 'distance_accuracy_value', 'NONE');
#86 =( NAMED_UNIT ( * ) SI_UNIT ( $, .STERADIAN. ) SOLID_ANGLE_UNIT ( ) );
#87 =( GEOMETRIC_REPRESENTATION_CONTEXT ( 3 ) GLOBAL_UNCERTAINTY_ASSIGNED_CONTEXT ( ( #66 ) ) GLOBAL_UNIT_ASSIGNED_CONTEXT ( ( #50, #67, #80 ) ) REPRESENTATION_CONTEXT ( 'NONE', 'WORKASPACE' ) );
#88 =( NAMED_UNIT ( * ) PLANE_ANGLE_UNIT ( ) SI_UNIT ( $, .RADIAN. ) );
#89 = CIRCLE ( 'NONE', #193, 6.000000000000000888 ) ;
#90 =( LENGTH_UNIT ( ) NAMED_UNIT ( * ) SI_UNIT ( .MILLI., .METRE. ) );
#91 = MECHANICAL_DESIGN_GEOMETRIC_PRESENTATION_REPRESENTATION (  '', ( #15 ), #3 ) ;
#92 = DIRECTION ( 'NONE',  ( 0.000000000000000000, 0.000000000000000000, 1.000000000000000000 ) ) ;
#93 = CARTESIAN_POINT ( 'NONE',  ( 0.000000000000000000, 0.000000000000000000, 500.0000000000000000 ) ) ;
#94 = VERTEX_POINT ( 'NONE', #188 ) ;
#95 = EDGE_CURVE ( 'NONE', #99, #94, #89, .T. ) ;
#96 = PRESENTATION_STYLE_ASSIGNMENT (( #111 ) ) ;
#97 = CLOSED_SHELL ( 'NONE', ( #181, #33, #21, #171 ) ) ;
#98 = ORIENTED_EDGE ( 'NONE', *, *, #143, .T. ) ;
#99 = VERTEX_POINT ( 'NONE', #8 ) ;
#100 = CARTESIAN_POINT ( 'NONE',  ( 0.000000000000000000, 0.000000000000000000, 500.0000000000000000 ) ) ;
#101 = COLOUR_RGB ( '',0.7921568627450980005, 0.8196078431372548767, 0.9333333333333333481 ) ;
#102 =( NAMED_UNIT ( * ) SI_UNIT ( $, .STERADIAN. ) SOLID_ANGLE_UNIT ( ) );
#103 = SURFACE_SIDE_STYLE ('',( #83 ) ) ;
#104 = PRESENTATION_STYLE_ASSIGNMENT (( #144 ) ) ;
#105 = APPLICATION_CONTEXT ( 'automotive_design' ) ;
#106 = STYLED_ITEM ( 'NONE', ( #24 ), #171 ) ;
#107 = FILL_AREA_STYLE ('',( #130 ) ) ;
#108 = CYLINDRICAL_SURFACE ( 'NONE', #183, 6.000000000000000888 ) ;
#109 = CARTESIAN_POINT ( 'NONE',  ( 6.000000000000000888, 7.347880794884120722E-16, 500.0000000000000000 ) ) ;
#110 = EDGE_LOOP ( 'NONE', ( #64, #112, #34, #117 ) ) ;
#111 = SURFACE_STYLE_USAGE ( .BOTH. , #172 ) ;
#112 = ORIENTED_EDGE ( 'NONE', *, *, #164, .T. ) ;
#113 = SURFACE_STYLE_FILL_AREA ( #65 ) ;
#114 =( LENGTH_UNIT ( ) NAMED_UNIT ( * ) SI_UNIT ( .MILLI., .METRE. ) );
#115 = FILL_AREA_STYLE ('',( #145 ) ) ;
#116 = STYLED_ITEM ( 'NONE', ( #128 ), #11 ) ;
#117 = ORIENTED_EDGE ( 'NONE', *, *, #73, .F. ) ;
#118 = DIRECTION ( 'NONE',  ( 0.000000000000000000, 0.000000000000000000, 1.000000000000000000 ) ) ;
#119 = UNCERTAINTY_MEASURE_WITH_UNIT (LENGTH_MEASURE( 1.000000000000000082E-05 ), #114, 'distance_accuracy_value', 'NONE');
#120 = DIRECTION ( 'NONE',  ( -0.000000000000000000, -0.000000000000000000, -1.000000000000000000 ) ) ;
#121 =( NAMED_UNIT ( * ) PLANE_ANGLE_UNIT ( ) SI_UNIT ( $, .RADIAN. ) );
#122 = DIRECTION ( 'NONE',  ( 1.000000000000000000, 0.000000000000000000, 0.000000000000000000 ) ) ;
#123 = FILL_AREA_STYLE_COLOUR ( '', #68 ) ;
#124 = STYLED_ITEM ( 'NONE', ( #81 ), #181 ) ;
#125 = DIRECTION ( 'NONE',  ( 0.000000000000000000, 0.000000000000000000, 1.000000000000000000 ) ) ;
#126 = STYLED_ITEM ( 'NONE', ( #31 ), #21 ) ;
#127 = DIRECTION ( 'NONE',  ( 1.000000000000000000, 0.000000000000000000, 0.000000000000000000 ) ) ;
#128 = PRESENTATION_STYLE_ASSIGNMENT (( #16 ) ) ;
#129 = CARTESIAN_POINT ( 'NONE',  ( 0.000000000000000000, 0.000000000000000000, 500.0000000000000000 ) ) ;
#130 = FILL_AREA_STYLE_COLOUR ( '', #199 ) ;
#131 = PRESENTATION_LAYER_ASSIGNMENT (  '', '', ( #106 ) ) ;
#132 = PRESENTATION_LAYER_ASSIGNMENT (  '', '', ( #30 ) ) ;
#133 = SURFACE_SIDE_STYLE ('',( #48 ) ) ;
#134 = VECTOR ( 'NONE', #7, 1000.000000000000000 ) ;
#135 = DIRECTION ( 'NONE',  ( 0.000000000000000000, 0.000000000000000000, 1.000000000000000000 ) ) ;
#136 = ORIENTED_EDGE ( 'NONE', *, *, #26, .F. ) ;
#137 = UNCERTAINTY_MEASURE_WITH_UNIT (LENGTH_MEASURE( 1.000000000000000082E-05 ), #59, 'distance_accuracy_value', 'NONE');
#138 = DIRECTION ( 'NONE',  ( 1.000000000000000000, 0.000000000000000000, 0.000000000000000000 ) ) ;
#139 = ORIENTED_EDGE ( 'NONE', *, *, #196, .T. ) ;
#140 = FILL_AREA_STYLE_COLOUR ( '', #182 ) ;
#141 = LINE ( 'NONE', #78, #134 ) ;
#142 = APPLICATION_CONTEXT ( 'automotive_design' ) ;
#143 = EDGE_CURVE ( 'NONE', #94, #99, #57, .T. ) ;
#144 = SURFACE_STYLE_USAGE ( .BOTH. , #166 ) ;
#145 = FILL_AREA_STYLE_COLOUR ( '', #101 ) ;
#146 = PRESENTATION_LAYER_ASSIGNMENT (  '', '', ( #116 ) ) ;
#147 =( NAMED_UNIT ( * ) PLANE_ANGLE_UNIT ( ) SI_UNIT ( $, .RADIAN. ) );
#148 = AXIS2_PLACEMENT_3D ( 'NONE', #129, #197, #60 ) ;
#149 =( NAMED_UNIT ( * ) SI_UNIT ( $, .STERADIAN. ) SOLID_ANGLE_UNIT ( ) );
#150 = DIRECTION ( 'NONE',  ( 1.000000000000000000, 0.000000000000000000, 0.000000000000000000 ) ) ;
#151 = SURFACE_SIDE_STYLE ('',( #47 ) ) ;
#152 = FILL_AREA_STYLE ('',( #159 ) ) ;
#153 = VERTEX_POINT ( 'NONE', #37 ) ;
#154 = AXIS2_PLACEMENT_3D ( 'NONE', #76, #135, #22 ) ;
#155 = EDGE_LOOP ( 'NONE', ( #23, #136 ) ) ;
#156 = ORIENTED_EDGE ( 'NONE', *, *, #95, .F. ) ;
#157 =( NAMED_UNIT ( * ) SI_UNIT ( $, .STERADIAN. ) SOLID_ANGLE_UNIT ( ) );
#158 =( GEOMETRIC_REPRESENTATION_CONTEXT ( 3 ) GLOBAL_UNCERTAINTY_ASSIGNED_CONTEXT ( ( #85 ) ) GLOBAL_UNIT_ASSIGNED_CONTEXT ( ( #90, #14, #195 ) ) REPRESENTATION_CONTEXT ( 'NONE', 'WORKASPACE' ) );
#159 = FILL_AREA_STYLE_COLOUR ( '', #71 ) ;
#160 = DIRECTION ( 'NONE',  ( -1.000000000000000000, 0.000000000000000000, 0.000000000000000000 ) ) ;
#161 =( LENGTH_UNIT ( ) NAMED_UNIT ( * ) SI_UNIT ( .MILLI., .METRE. ) );
#162 = AXIS2_PLACEMENT_3D ( 'NONE', #32, #92, #150 ) ;
#163 = SURFACE_STYLE_USAGE ( .BOTH. , #103 ) ;
#164 = EDGE_CURVE ( 'NONE', #94, #38, #175, .T. ) ;
#165 = ADVANCED_BREP_SHAPE_REPRESENTATION ( 'W12', ( #11, #75 ), #168 ) ;
#166 = SURFACE_SIDE_STYLE ('',( #70 ) ) ;
#167 = PRODUCT_DEFINITION ( 'UNKNOWN', '', #40, #53 ) ;
#168 =( GEOMETRIC_REPRESENTATION_CONTEXT ( 3 ) GLOBAL_UNCERTAINTY_ASSIGNED_CONTEXT ( ( #180 ) ) GLOBAL_UNIT_ASSIGNED_CONTEXT ( ( #161, #82, #69 ) ) REPRESENTATION_CONTEXT ( 'NONE', 'WORKASPACE' ) );
#169 = AXIS2_PLACEMENT_3D ( 'NONE', #39, #120, #61 ) ;
#170 = PLANE ( 'NONE',  #148 ) ;
#171 = ADVANCED_FACE ( 'NONE', ( #62 ), #2, .F. ) ;
#172 = SURFACE_SIDE_STYLE ('',( #113 ) ) ;
#173 = DIRECTION ( 'NONE',  ( 0.000000000000000000, 0.000000000000000000, 1.000000000000000000 ) ) ;
#174 = ORIENTED_EDGE ( 'NONE', *, *, #164, .F. ) ;
#175 = LINE ( 'NONE', #109, #52 ) ;
#176 =( NAMED_UNIT ( * ) PLANE_ANGLE_UNIT ( ) SI_UNIT ( $, .RADIAN. ) );
#177 =( GEOMETRIC_REPRESENTATION_CONTEXT ( 3 ) GLOBAL_UNCERTAINTY_ASSIGNED_CONTEXT ( ( #9 ) ) GLOBAL_UNIT_ASSIGNED_CONTEXT ( ( #58, #147, #86 ) ) REPRESENTATION_CONTEXT ( 'NONE', 'WORKASPACE' ) );
#178 = PRESENTATION_LAYER_ASSIGNMENT (  '', '', ( #15 ) ) ;
#179 = CARTESIAN_POINT ( 'NONE',  ( 0.000000000000000000, 0.000000000000000000, 0.000000000000000000 ) ) ;
#180 = UNCERTAINTY_MEASURE_WITH_UNIT (LENGTH_MEASURE( 1.000000000000000082E-05 ), #161, 'distance_accuracy_value', 'NONE');
#181 = ADVANCED_FACE ( 'NONE', ( #189 ), #108, .T. ) ;
#182 = COLOUR_RGB ( '',0.7921568627450980005, 0.8196078431372548767, 0.9333333333333333481 ) ;
#183 = AXIS2_PLACEMENT_3D ( 'NONE', #192, #27, #160 ) ;
#184 = FILL_AREA_STYLE ('',( #140 ) ) ;
#185 = FILL_AREA_STYLE_COLOUR ( '', #186 ) ;
#186 = COLOUR_RGB ( '',0.8980392156862745390, 0.8980392156862745390, 0.8980392156862745390 ) ;
#187 = SURFACE_STYLE_USAGE ( .BOTH. , #35 ) ;
#188 = CARTESIAN_POINT ( 'NONE',  ( 6.000000000000000888, 7.347880794884120722E-16, 500.0000000000000000 ) ) ;
#189 = FACE_OUTER_BOUND ( 'NONE', #110, .T. ) ;
#190 =( GEOMETRIC_REPRESENTATION_CONTEXT ( 3 ) GLOBAL_UNCERTAINTY_ASSIGNED_CONTEXT ( ( #119 ) ) GLOBAL_UNIT_ASSIGNED_CONTEXT ( ( #114, #176, #102 ) ) REPRESENTATION_CONTEXT ( 'NONE', 'WORKASPACE' ) );
#191 = DIRECTION ( 'NONE',  ( 0.000000000000000000, 0.000000000000000000, 1.000000000000000000 ) ) ;
#192 = CARTESIAN_POINT ( 'NONE',  ( 0.000000000000000000, 0.000000000000000000, 500.0000000000000000 ) ) ;
#193 = AXIS2_PLACEMENT_3D ( 'NONE', #100, #118, #138 ) ;
#194 = PRODUCT_CONTEXT ( 'NONE', #105, 'mechanical' ) ;
#195 =( NAMED_UNIT ( * ) SI_UNIT ( $, .STERADIAN. ) SOLID_ANGLE_UNIT ( ) );
#196 = EDGE_CURVE ( 'NONE', #153, #38, #44, .T. ) ;
#197 = DIRECTION ( 'NONE',  ( 0.000000000000000000, 0.000000000000000000, 1.000000000000000000 ) ) ;
#198 = PRODUCT_DEFINITION_SHAPE ( 'NONE', 'NONE',  #167 ) ;
#199 = COLOUR_RGB ( '',0.8980392156862745390, 0.8980392156862745390, 0.8980392156862745390 ) ;
#200 = SURFACE_STYLE_USAGE ( .BOTH. , #151 ) ;
ENDSEC;
END-ISO-10303-21;
