ISO-10303-21;
HEADER;
FILE_DESCRIPTION (( 'STEP AP214' ),
    '1' );
FILE_NAME ('W10.STEP',
    '2021-12-29T07:49:46',
    ( '' ),
    ( '' ),
    'SwSTEP 2.0',
    'SolidWorks 2020',
    '' );
FILE_SCHEMA (( 'AUTOMOTIVE_DESIGN' ));
ENDSEC;

DATA;
#1 = VERTEX_POINT ( 'NONE', #46 ) ;
#2 = ADVANCED_FACE ( 'NONE', ( #110 ), #95, .T. ) ;
#3 = EDGE_LOOP ( 'NONE', ( #97, #59, #24, #18 ) ) ;
#4 = COLOUR_RGB ( '',0.7921568627450980005, 0.8196078431372548767, 0.9333333333333333481 ) ;
#5 = COLOUR_RGB ( '',0.8980392156862745390, 0.8980392156862745390, 0.8980392156862745390 ) ;
#6 = SURFACE_SIDE_STYLE ('',( #64 ) ) ;
#7 = PLANE ( 'NONE',  #44 ) ;
#8 = DIRECTION ( 'NONE',  ( -0.000000000000000000, -0.000000000000000000, -1.000000000000000000 ) ) ;
#9 = DIRECTION ( 'NONE',  ( 0.000000000000000000, 0.000000000000000000, 1.000000000000000000 ) ) ;
#10 = CARTESIAN_POINT ( 'NONE',  ( 0.000000000000000000, 0.000000000000000000, 500.0000000000000000 ) ) ;
#11 = SURFACE_STYLE_FILL_AREA ( #196 ) ;
#12 = FILL_AREA_STYLE_COLOUR ( '', #4 ) ;
#13 = MECHANICAL_DESIGN_GEOMETRIC_PRESENTATION_REPRESENTATION (  '', ( #89 ), #150 ) ;
#14 = SURFACE_SIDE_STYLE ('',( #136 ) ) ;
#15 = PRODUCT ( 'W10', 'W10', '', ( #154 ) ) ;
#16 = PRESENTATION_STYLE_ASSIGNMENT (( #71 ) ) ;
#17 = PRESENTATION_LAYER_ASSIGNMENT (  '', '', ( #69 ) ) ;
#18 = ORIENTED_EDGE ( 'NONE', *, *, #131, .T. ) ;
#19 = ORIENTED_EDGE ( 'NONE', *, *, #90, .F. ) ;
#20 = PRESENTATION_LAYER_ASSIGNMENT (  '', '', ( #191 ) ) ;
#21 = AXIS2_PLACEMENT_3D ( 'NONE', #105, #151, #168 ) ;
#22 = PRODUCT_DEFINITION ( 'UNKNOWN', '', #96, #23 ) ;
#23 = PRODUCT_DEFINITION_CONTEXT ( 'detailed design', #120, 'design' ) ;
#24 = ORIENTED_EDGE ( 'NONE', *, *, #111, .T. ) ;
#25 =( NAMED_UNIT ( * ) SI_UNIT ( $, .STERADIAN. ) SOLID_ANGLE_UNIT ( ) );
#26 =( LENGTH_UNIT ( ) NAMED_UNIT ( * ) SI_UNIT ( .MILLI., .METRE. ) );
#27 = PRODUCT_RELATED_PRODUCT_CATEGORY ( 'part', '', ( #15 ) ) ;
#28 = CYLINDRICAL_SURFACE ( 'NONE', #195, 5.000000000000000000 ) ;
#29 = LINE ( 'NONE', #67, #129 ) ;
#30 = UNCERTAINTY_MEASURE_WITH_UNIT (LENGTH_MEASURE( 1.000000000000000082E-05 ), #112, 'distance_accuracy_value', 'NONE');
#31 = DIRECTION ( 'NONE',  ( 0.000000000000000000, 0.000000000000000000, 1.000000000000000000 ) ) ;
#32 = STYLED_ITEM ( 'NONE', ( #16 ), #43 ) ;
#33 = SURFACE_STYLE_USAGE ( .BOTH. , #92 ) ;
#34 = FACE_OUTER_BOUND ( 'NONE', #186, .T. ) ;
#35 = SURFACE_SIDE_STYLE ('',( #173 ) ) ;
#36 = PRESENTATION_STYLE_ASSIGNMENT (( #113 ) ) ;
#37 = DIRECTION ( 'NONE',  ( -1.000000000000000000, 0.000000000000000000, 0.000000000000000000 ) ) ;
#38 = DIRECTION ( 'NONE',  ( -0.000000000000000000, -0.000000000000000000, -1.000000000000000000 ) ) ;
#39 = CARTESIAN_POINT ( 'NONE',  ( 0.000000000000000000, 0.000000000000000000, 0.000000000000000000 ) ) ;
#40 = CIRCLE ( 'NONE', #74, 5.000000000000000000 ) ;
#41 = DIRECTION ( 'NONE',  ( 0.000000000000000000, 0.000000000000000000, 1.000000000000000000 ) ) ;
#42 = FILL_AREA_STYLE ('',( #12 ) ) ;
#43 = ADVANCED_BREP_SHAPE_REPRESENTATION ( 'W10', ( #141, #60 ), #139 ) ;
#44 = AXIS2_PLACEMENT_3D ( 'NONE', #144, #41, #134 ) ;
#45 = DIRECTION ( 'NONE',  ( 1.000000000000000000, 0.000000000000000000, 0.000000000000000000 ) ) ;
#46 = CARTESIAN_POINT ( 'NONE',  ( 5.000000000000000000, 6.123233995736766282E-16, 0.000000000000000000 ) ) ;
#47 = MECHANICAL_DESIGN_GEOMETRIC_PRESENTATION_REPRESENTATION (  '', ( #78 ), #101 ) ;
#48 = ORIENTED_EDGE ( 'NONE', *, *, #90, .T. ) ;
#49 = UNCERTAINTY_MEASURE_WITH_UNIT (LENGTH_MEASURE( 1.000000000000000082E-05 ), #88, 'distance_accuracy_value', 'NONE');
#50 = ORIENTED_EDGE ( 'NONE', *, *, #131, .F. ) ;
#51 =( NAMED_UNIT ( * ) PLANE_ANGLE_UNIT ( ) SI_UNIT ( $, .RADIAN. ) );
#52 = FACE_OUTER_BOUND ( 'NONE', #3, .T. ) ;
#53 = SURFACE_SIDE_STYLE ('',( #56 ) ) ;
#54 = FILL_AREA_STYLE_COLOUR ( '', #135 ) ;
#55 = MECHANICAL_DESIGN_GEOMETRIC_PRESENTATION_REPRESENTATION (  '', ( #69 ), #152 ) ;
#56 = SURFACE_STYLE_FILL_AREA ( #104 ) ;
#57 = UNCERTAINTY_MEASURE_WITH_UNIT (LENGTH_MEASURE( 1.000000000000000082E-05 ), #197, 'distance_accuracy_value', 'NONE');
#58 =( NAMED_UNIT ( * ) PLANE_ANGLE_UNIT ( ) SI_UNIT ( $, .RADIAN. ) );
#59 = ORIENTED_EDGE ( 'NONE', *, *, #109, .F. ) ;
#60 = AXIS2_PLACEMENT_3D ( 'NONE', #183, #171, #45 ) ;
#61 = FILL_AREA_STYLE_COLOUR ( '', #158 ) ;
#62 = ADVANCED_FACE ( 'NONE', ( #52 ), #28, .T. ) ;
#63 = CARTESIAN_POINT ( 'NONE',  ( 0.000000000000000000, 0.000000000000000000, 500.0000000000000000 ) ) ;
#64 = SURFACE_STYLE_FILL_AREA ( #66 ) ;
#65 =( NAMED_UNIT ( * ) PLANE_ANGLE_UNIT ( ) SI_UNIT ( $, .RADIAN. ) );
#66 = FILL_AREA_STYLE ('',( #82 ) ) ;
#67 = CARTESIAN_POINT ( 'NONE',  ( -5.000000000000000000, 0.000000000000000000, 500.0000000000000000 ) ) ;
#68 = LINE ( 'NONE', #181, #188 ) ;
#69 = STYLED_ITEM ( 'NONE', ( #132 ), #79 ) ;
#70 = SURFACE_SIDE_STYLE ('',( #11 ) ) ;
#71 = SURFACE_STYLE_USAGE ( .BOTH. , #14 ) ;
#72 = EDGE_CURVE ( 'NONE', #1, #174, #40, .T. ) ;
#73 =( LENGTH_UNIT ( ) NAMED_UNIT ( * ) SI_UNIT ( .MILLI., .METRE. ) );
#74 = AXIS2_PLACEMENT_3D ( 'NONE', #39, #9, #179 ) ;
#75 =( NAMED_UNIT ( * ) SI_UNIT ( $, .STERADIAN. ) SOLID_ANGLE_UNIT ( ) );
#76 = ORIENTED_EDGE ( 'NONE', *, *, #72, .T. ) ;
#77 =( GEOMETRIC_REPRESENTATION_CONTEXT ( 3 ) GLOBAL_UNCERTAINTY_ASSIGNED_CONTEXT ( ( #116 ) ) GLOBAL_UNIT_ASSIGNED_CONTEXT ( ( #98, #65, #83 ) ) REPRESENTATION_CONTEXT ( 'NONE', 'WORKASPACE' ) );
#78 = STYLED_ITEM ( 'NONE', ( #157 ), #2 ) ;
#79 = ADVANCED_FACE ( 'NONE', ( #119 ), #7, .T. ) ;
#80 = EDGE_LOOP ( 'NONE', ( #127, #48 ) ) ;
#81 = FILL_AREA_STYLE_COLOUR ( '', #165 ) ;
#82 = FILL_AREA_STYLE_COLOUR ( '', #5 ) ;
#83 =( NAMED_UNIT ( * ) SI_UNIT ( $, .STERADIAN. ) SOLID_ANGLE_UNIT ( ) );
#84 = UNCERTAINTY_MEASURE_WITH_UNIT (LENGTH_MEASURE( 1.000000000000000082E-05 ), #73, 'distance_accuracy_value', 'NONE');
#85 = DIRECTION ( 'NONE',  ( 1.000000000000000000, 0.000000000000000000, 0.000000000000000000 ) ) ;
#86 = MECHANICAL_DESIGN_GEOMETRIC_PRESENTATION_REPRESENTATION (  '', ( #191 ), #115 ) ;
#87 = UNCERTAINTY_MEASURE_WITH_UNIT (LENGTH_MEASURE( 1.000000000000000082E-05 ), #26, 'distance_accuracy_value', 'NONE');
#88 =( LENGTH_UNIT ( ) NAMED_UNIT ( * ) SI_UNIT ( .MILLI., .METRE. ) );
#89 = STYLED_ITEM ( 'NONE', ( #142 ), #62 ) ;
#90 = EDGE_CURVE ( 'NONE', #155, #94, #108, .T. ) ;
#91 =( NAMED_UNIT ( * ) PLANE_ANGLE_UNIT ( ) SI_UNIT ( $, .RADIAN. ) );
#92 = SURFACE_SIDE_STYLE ('',( #198 ) ) ;
#93 = APPLICATION_PROTOCOL_DEFINITION ( 'draft international standard', 'automotive_design', 1998, #120 ) ;
#94 = VERTEX_POINT ( 'NONE', #176 ) ;
#95 = CYLINDRICAL_SURFACE ( 'NONE', #177, 5.000000000000000000 ) ;
#96 = PRODUCT_DEFINITION_FORMATION_WITH_SPECIFIED_SOURCE ( 'ANY', '', #15, .NOT_KNOWN. ) ;
#97 = ORIENTED_EDGE ( 'NONE', *, *, #126, .F. ) ;
#98 =( LENGTH_UNIT ( ) NAMED_UNIT ( * ) SI_UNIT ( .MILLI., .METRE. ) );
#99 =( NAMED_UNIT ( * ) PLANE_ANGLE_UNIT ( ) SI_UNIT ( $, .RADIAN. ) );
#100 = DIRECTION ( 'NONE',  ( -0.000000000000000000, -0.000000000000000000, -1.000000000000000000 ) ) ;
#101 =( GEOMETRIC_REPRESENTATION_CONTEXT ( 3 ) GLOBAL_UNCERTAINTY_ASSIGNED_CONTEXT ( ( #182 ) ) GLOBAL_UNIT_ASSIGNED_CONTEXT ( ( #114, #99, #190 ) ) REPRESENTATION_CONTEXT ( 'NONE', 'WORKASPACE' ) );
#102 = CARTESIAN_POINT ( 'NONE',  ( 0.000000000000000000, 0.000000000000000000, 0.000000000000000000 ) ) ;
#103 = CIRCLE ( 'NONE', #180, 5.000000000000000000 ) ;
#104 = FILL_AREA_STYLE ('',( #54 ) ) ;
#105 = CARTESIAN_POINT ( 'NONE',  ( 0.000000000000000000, 0.000000000000000000, 0.000000000000000000 ) ) ;
#106 = PRESENTATION_LAYER_ASSIGNMENT (  '', '', ( #89 ) ) ;
#107 =( NAMED_UNIT ( * ) PLANE_ANGLE_UNIT ( ) SI_UNIT ( $, .RADIAN. ) );
#108 = CIRCLE ( 'NONE', #118, 5.000000000000000000 ) ;
#109 = EDGE_CURVE ( 'NONE', #94, #155, #170, .T. ) ;
#110 = FACE_OUTER_BOUND ( 'NONE', #138, .T. ) ;
#111 = EDGE_CURVE ( 'NONE', #94, #174, #29, .T. ) ;
#112 =( LENGTH_UNIT ( ) NAMED_UNIT ( * ) SI_UNIT ( .MILLI., .METRE. ) );
#113 = SURFACE_STYLE_USAGE ( .BOTH. , #70 ) ;
#114 =( LENGTH_UNIT ( ) NAMED_UNIT ( * ) SI_UNIT ( .MILLI., .METRE. ) );
#115 =( GEOMETRIC_REPRESENTATION_CONTEXT ( 3 ) GLOBAL_UNCERTAINTY_ASSIGNED_CONTEXT ( ( #57 ) ) GLOBAL_UNIT_ASSIGNED_CONTEXT ( ( #197, #58, #75 ) ) REPRESENTATION_CONTEXT ( 'NONE', 'WORKASPACE' ) );
#116 = UNCERTAINTY_MEASURE_WITH_UNIT (LENGTH_MEASURE( 1.000000000000000082E-05 ), #98, 'distance_accuracy_value', 'NONE');
#117 =( NAMED_UNIT ( * ) PLANE_ANGLE_UNIT ( ) SI_UNIT ( $, .RADIAN. ) );
#118 = AXIS2_PLACEMENT_3D ( 'NONE', #10, #31, #133 ) ;
#119 = FACE_OUTER_BOUND ( 'NONE', #80, .T. ) ;
#120 = APPLICATION_CONTEXT ( 'automotive_design' ) ;
#121 =( NAMED_UNIT ( * ) SI_UNIT ( $, .STERADIAN. ) SOLID_ANGLE_UNIT ( ) );
#122 = MECHANICAL_DESIGN_GEOMETRIC_PRESENTATION_REPRESENTATION (  '', ( #199 ), #77 ) ;
#123 = FILL_AREA_STYLE ('',( #81 ) ) ;
#124 = SHAPE_DEFINITION_REPRESENTATION ( #184, #43 ) ;
#125 = PLANE ( 'NONE',  #21 ) ;
#126 = EDGE_CURVE ( 'NONE', #155, #1, #68, .T. ) ;
#127 = ORIENTED_EDGE ( 'NONE', *, *, #109, .T. ) ;
#128 = SURFACE_STYLE_USAGE ( .BOTH. , #35 ) ;
#129 = VECTOR ( 'NONE', #38, 1000.000000000000000 ) ;
#130 = ORIENTED_EDGE ( 'NONE', *, *, #111, .F. ) ;
#131 = EDGE_CURVE ( 'NONE', #174, #1, #103, .T. ) ;
#132 = PRESENTATION_STYLE_ASSIGNMENT (( #192 ) ) ;
#133 = DIRECTION ( 'NONE',  ( 1.000000000000000000, 0.000000000000000000, 0.000000000000000000 ) ) ;
#134 = DIRECTION ( 'NONE',  ( 1.000000000000000000, 0.000000000000000000, -0.000000000000000000 ) ) ;
#135 = COLOUR_RGB ( '',0.8980392156862745390, 0.8980392156862745390, 0.8980392156862745390 ) ;
#136 = SURFACE_STYLE_FILL_AREA ( #42 ) ;
#137 = CARTESIAN_POINT ( 'NONE',  ( 5.000000000000000000, 6.123233995736766282E-16, 500.0000000000000000 ) ) ;
#138 = EDGE_LOOP ( 'NONE', ( #19, #159, #76, #130 ) ) ;
#139 =( GEOMETRIC_REPRESENTATION_CONTEXT ( 3 ) GLOBAL_UNCERTAINTY_ASSIGNED_CONTEXT ( ( #49 ) ) GLOBAL_UNIT_ASSIGNED_CONTEXT ( ( #88, #107, #166 ) ) REPRESENTATION_CONTEXT ( 'NONE', 'WORKASPACE' ) );
#140 =( GEOMETRIC_REPRESENTATION_CONTEXT ( 3 ) GLOBAL_UNCERTAINTY_ASSIGNED_CONTEXT ( ( #84 ) ) GLOBAL_UNIT_ASSIGNED_CONTEXT ( ( #73, #91, #121 ) ) REPRESENTATION_CONTEXT ( 'NONE', 'WORKASPACE' ) );
#141 = MANIFOLD_SOLID_BREP ( 'Boss-Extrude1', #169 ) ;
#142 = PRESENTATION_STYLE_ASSIGNMENT (( #178 ) ) ;
#143 = APPLICATION_CONTEXT ( 'automotive_design' ) ;
#144 = CARTESIAN_POINT ( 'NONE',  ( 0.000000000000000000, 0.000000000000000000, 500.0000000000000000 ) ) ;
#145 = COLOUR_RGB ( '',0.7921568627450980005, 0.8196078431372548767, 0.9333333333333333481 ) ;
#146 = FILL_AREA_STYLE_COLOUR ( '', #145 ) ;
#147 =( NAMED_UNIT ( * ) SI_UNIT ( $, .STERADIAN. ) SOLID_ANGLE_UNIT ( ) );
#148 = DIRECTION ( 'NONE',  ( 1.000000000000000000, 0.000000000000000000, 0.000000000000000000 ) ) ;
#149 = MECHANICAL_DESIGN_GEOMETRIC_PRESENTATION_REPRESENTATION (  '', ( #32 ), #140 ) ;
#150 =( GEOMETRIC_REPRESENTATION_CONTEXT ( 3 ) GLOBAL_UNCERTAINTY_ASSIGNED_CONTEXT ( ( #30 ) ) GLOBAL_UNIT_ASSIGNED_CONTEXT ( ( #112, #51, #25 ) ) REPRESENTATION_CONTEXT ( 'NONE', 'WORKASPACE' ) );
#151 = DIRECTION ( 'NONE',  ( 0.000000000000000000, 0.000000000000000000, 1.000000000000000000 ) ) ;
#152 =( GEOMETRIC_REPRESENTATION_CONTEXT ( 3 ) GLOBAL_UNCERTAINTY_ASSIGNED_CONTEXT ( ( #87 ) ) GLOBAL_UNIT_ASSIGNED_CONTEXT ( ( #26, #117, #147 ) ) REPRESENTATION_CONTEXT ( 'NONE', 'WORKASPACE' ) );
#153 = ADVANCED_FACE ( 'NONE', ( #34 ), #125, .F. ) ;
#154 = PRODUCT_CONTEXT ( 'NONE', #143, 'mechanical' ) ;
#155 = VERTEX_POINT ( 'NONE', #137 ) ;
#156 = FILL_AREA_STYLE ('',( #61 ) ) ;
#157 = PRESENTATION_STYLE_ASSIGNMENT (( #128 ) ) ;
#158 = COLOUR_RGB ( '',0.8980392156862745390, 0.8980392156862745390, 0.8980392156862745390 ) ;
#159 = ORIENTED_EDGE ( 'NONE', *, *, #126, .T. ) ;
#160 = AXIS2_PLACEMENT_3D ( 'NONE', #163, #161, #85 ) ;
#161 = DIRECTION ( 'NONE',  ( 0.000000000000000000, 0.000000000000000000, 1.000000000000000000 ) ) ;
#162 = DIRECTION ( 'NONE',  ( -1.000000000000000000, 0.000000000000000000, 0.000000000000000000 ) ) ;
#163 = CARTESIAN_POINT ( 'NONE',  ( 0.000000000000000000, 0.000000000000000000, 500.0000000000000000 ) ) ;
#164 = DIRECTION ( 'NONE',  ( 0.000000000000000000, 0.000000000000000000, 1.000000000000000000 ) ) ;
#165 = COLOUR_RGB ( '',0.8980392156862745390, 0.8980392156862745390, 0.8980392156862745390 ) ;
#166 =( NAMED_UNIT ( * ) SI_UNIT ( $, .STERADIAN. ) SOLID_ANGLE_UNIT ( ) );
#167 = PRESENTATION_LAYER_ASSIGNMENT (  '', '', ( #32 ) ) ;
#168 = DIRECTION ( 'NONE',  ( 1.000000000000000000, 0.000000000000000000, -0.000000000000000000 ) ) ;
#169 = CLOSED_SHELL ( 'NONE', ( #2, #62, #79, #153 ) ) ;
#170 = CIRCLE ( 'NONE', #160, 5.000000000000000000 ) ;
#171 = DIRECTION ( 'NONE',  ( 0.000000000000000000, 0.000000000000000000, 1.000000000000000000 ) ) ;
#172 = APPLICATION_PROTOCOL_DEFINITION ( 'draft international standard', 'automotive_design', 1998, #143 ) ;
#173 = SURFACE_STYLE_FILL_AREA ( #156 ) ;
#174 = VERTEX_POINT ( 'NONE', #185 ) ;
#175 = PRESENTATION_LAYER_ASSIGNMENT (  '', '', ( #199 ) ) ;
#176 = CARTESIAN_POINT ( 'NONE',  ( -5.000000000000000000, 0.000000000000000000, 500.0000000000000000 ) ) ;
#177 = AXIS2_PLACEMENT_3D ( 'NONE', #63, #8, #37 ) ;
#178 = SURFACE_STYLE_USAGE ( .BOTH. , #6 ) ;
#179 = DIRECTION ( 'NONE',  ( 1.000000000000000000, 0.000000000000000000, 0.000000000000000000 ) ) ;
#180 = AXIS2_PLACEMENT_3D ( 'NONE', #102, #164, #148 ) ;
#181 = CARTESIAN_POINT ( 'NONE',  ( 5.000000000000000000, 6.123233995736766282E-16, 500.0000000000000000 ) ) ;
#182 = UNCERTAINTY_MEASURE_WITH_UNIT (LENGTH_MEASURE( 1.000000000000000082E-05 ), #114, 'distance_accuracy_value', 'NONE');
#183 = CARTESIAN_POINT ( 'NONE',  ( 0.000000000000000000, 0.000000000000000000, 0.000000000000000000 ) ) ;
#184 = PRODUCT_DEFINITION_SHAPE ( 'NONE', 'NONE',  #22 ) ;
#185 = CARTESIAN_POINT ( 'NONE',  ( -5.000000000000000000, 0.000000000000000000, 0.000000000000000000 ) ) ;
#186 = EDGE_LOOP ( 'NONE', ( #50, #189 ) ) ;
#187 = PRESENTATION_LAYER_ASSIGNMENT (  '', '', ( #78 ) ) ;
#188 = VECTOR ( 'NONE', #194, 1000.000000000000000 ) ;
#189 = ORIENTED_EDGE ( 'NONE', *, *, #72, .F. ) ;
#190 =( NAMED_UNIT ( * ) SI_UNIT ( $, .STERADIAN. ) SOLID_ANGLE_UNIT ( ) );
#191 = STYLED_ITEM ( 'NONE', ( #200 ), #153 ) ;
#192 = SURFACE_STYLE_USAGE ( .BOTH. , #53 ) ;
#193 = CARTESIAN_POINT ( 'NONE',  ( 0.000000000000000000, 0.000000000000000000, 500.0000000000000000 ) ) ;
#194 = DIRECTION ( 'NONE',  ( -0.000000000000000000, -0.000000000000000000, -1.000000000000000000 ) ) ;
#195 = AXIS2_PLACEMENT_3D ( 'NONE', #193, #100, #162 ) ;
#196 = FILL_AREA_STYLE ('',( #146 ) ) ;
#197 =( LENGTH_UNIT ( ) NAMED_UNIT ( * ) SI_UNIT ( .MILLI., .METRE. ) );
#198 = SURFACE_STYLE_FILL_AREA ( #123 ) ;
#199 = STYLED_ITEM ( 'NONE', ( #36 ), #141 ) ;
#200 = PRESENTATION_STYLE_ASSIGNMENT (( #33 ) ) ;
ENDSEC;
END-ISO-10303-21;
