ISO-10303-21;
HEADER;
FILE_DESCRIPTION (( 'STEP AP214' ),
    '1' );
FILE_NAME ('W22.STEP',
    '2021-12-29T08:08:43',
    ( '' ),
    ( '' ),
    'SwSTEP 2.0',
    'SolidWorks 2020',
    '' );
FILE_SCHEMA (( 'AUTOMOTIVE_DESIGN' ));
ENDSEC;

DATA;
#1 = DIRECTION ( 'NONE',  ( -0.000000000000000000, -0.000000000000000000, -1.000000000000000000 ) ) ;
#2 = CARTESIAN_POINT ( 'NONE',  ( 0.000000000000000000, 0.000000000000000000, 0.000000000000000000 ) ) ;
#3 = VECTOR ( 'NONE', #115, 1000.000000000000000 ) ;
#4 = FACE_OUTER_BOUND ( 'NONE', #51, .T. ) ;
#5 = PRODUCT_CONTEXT ( 'NONE', #53, 'mechanical' ) ;
#6 = AXIS2_PLACEMENT_3D ( 'NONE', #113, #126, #27 ) ;
#7 = PRESENTATION_STYLE_ASSIGNMENT (( #47 ) ) ;
#8 = EDGE_CURVE ( 'NONE', #77, #112, #56, .T. ) ;
#9 = ORIENTED_EDGE ( 'NONE', *, *, #99, .F. ) ;
#10 = DIRECTION ( 'NONE',  ( 0.000000000000000000, 0.000000000000000000, 1.000000000000000000 ) ) ;
#11 = DIRECTION ( 'NONE',  ( 0.000000000000000000, 0.000000000000000000, 1.000000000000000000 ) ) ;
#12 = EDGE_CURVE ( 'NONE', #62, #61, #75, .T. ) ;
#13 = DIRECTION ( 'NONE',  ( 0.000000000000000000, 0.000000000000000000, 1.000000000000000000 ) ) ;
#14 = SURFACE_SIDE_STYLE ('',( #107 ) ) ;
#15 = ORIENTED_EDGE ( 'NONE', *, *, #134, .F. ) ;
#16 = EDGE_LOOP ( 'NONE', ( #84, #87 ) ) ;
#17 =( NAMED_UNIT ( * ) SI_UNIT ( $, .STERADIAN. ) SOLID_ANGLE_UNIT ( ) );
#18 = SURFACE_STYLE_USAGE ( .BOTH. , #131 ) ;
#19 =( NAMED_UNIT ( * ) PLANE_ANGLE_UNIT ( ) SI_UNIT ( $, .RADIAN. ) );
#20 = COLOUR_RGB ( '',0.7921568627450980005, 0.8196078431372548767, 0.9333333333333333481 ) ;
#21 = PRODUCT_DEFINITION_FORMATION_WITH_SPECIFIED_SOURCE ( 'ANY', '', #122, .NOT_KNOWN. ) ;
#22 = PRODUCT_DEFINITION ( 'UNKNOWN', '', #21, #74 ) ;
#23 = UNCERTAINTY_MEASURE_WITH_UNIT (LENGTH_MEASURE( 1.000000000000000082E-05 ), #34, 'distance_accuracy_value', 'NONE');
#24 = AXIS2_PLACEMENT_3D ( 'NONE', #105, #81, #59 ) ;
#25 = AXIS2_PLACEMENT_3D ( 'NONE', #66, #28, #138 ) ;
#26 = STYLED_ITEM ( 'NONE', ( #100 ), #82 ) ;
#27 = DIRECTION ( 'NONE',  ( 1.000000000000000000, 0.000000000000000000, 0.000000000000000000 ) ) ;
#28 = DIRECTION ( 'NONE',  ( 0.000000000000000000, 0.000000000000000000, 1.000000000000000000 ) ) ;
#29 = CARTESIAN_POINT ( 'NONE',  ( 0.000000000000000000, 0.000000000000000000, 1000.000000000000000 ) ) ;
#30 = CARTESIAN_POINT ( 'NONE',  ( 0.000000000000000000, 0.000000000000000000, 1000.000000000000000 ) ) ;
#31 = DIRECTION ( 'NONE',  ( 0.000000000000000000, 0.000000000000000000, 1.000000000000000000 ) ) ;
#32 = FILL_AREA_STYLE_COLOUR ( '', #20 ) ;
#33 =( NAMED_UNIT ( * ) PLANE_ANGLE_UNIT ( ) SI_UNIT ( $, .RADIAN. ) );
#34 =( LENGTH_UNIT ( ) NAMED_UNIT ( * ) SI_UNIT ( .MILLI., .METRE. ) );
#35 =( NAMED_UNIT ( * ) SI_UNIT ( $, .STERADIAN. ) SOLID_ANGLE_UNIT ( ) );
#36 = CIRCLE ( 'NONE', #89, 11.00000000000000000 ) ;
#37 = MECHANICAL_DESIGN_GEOMETRIC_PRESENTATION_REPRESENTATION (  '', ( #26 ), #119 ) ;
#38 = LINE ( 'NONE', #39, #63 ) ;
#39 = CARTESIAN_POINT ( 'NONE',  ( -11.00000000000000000, 0.000000000000000000, 1000.000000000000000 ) ) ;
#40 = COLOUR_RGB ( '',0.7921568627450980005, 0.8196078431372548767, 0.9333333333333333481 ) ;
#41 = DIRECTION ( 'NONE',  ( -0.000000000000000000, -0.000000000000000000, -1.000000000000000000 ) ) ;
#42 = DIRECTION ( 'NONE',  ( 1.000000000000000000, 0.000000000000000000, -0.000000000000000000 ) ) ;
#43 = APPLICATION_PROTOCOL_DEFINITION ( 'draft international standard', 'automotive_design', 1998, #53 ) ;
#44 = APPLICATION_PROTOCOL_DEFINITION ( 'draft international standard', 'automotive_design', 1998, #127 ) ;
#45 = ADVANCED_FACE ( 'NONE', ( #4 ), #57, .T. ) ;
#46 = AXIS2_PLACEMENT_3D ( 'NONE', #80, #13, #42 ) ;
#47 = SURFACE_STYLE_USAGE ( .BOTH. , #14 ) ;
#48 = ORIENTED_EDGE ( 'NONE', *, *, #73, .F. ) ;
#49 = PRESENTATION_LAYER_ASSIGNMENT (  '', '', ( #108 ) ) ;
#50 = ADVANCED_FACE ( 'NONE', ( #67 ), #97, .F. ) ;
#51 = EDGE_LOOP ( 'NONE', ( #109, #55, #64, #9 ) ) ;
#52 = FILL_AREA_STYLE_COLOUR ( '', #40 ) ;
#53 = APPLICATION_CONTEXT ( 'automotive_design' ) ;
#54 = FILL_AREA_STYLE ('',( #52 ) ) ;
#55 = ORIENTED_EDGE ( 'NONE', *, *, #106, .T. ) ;
#56 = CIRCLE ( 'NONE', #6, 11.00000000000000000 ) ;
#57 = CYLINDRICAL_SURFACE ( 'NONE', #124, 11.00000000000000000 ) ;
#58 = AXIS2_PLACEMENT_3D ( 'NONE', #30, #79, #129 ) ;
#59 = DIRECTION ( 'NONE',  ( 1.000000000000000000, 0.000000000000000000, 0.000000000000000000 ) ) ;
#60 = ADVANCED_FACE ( 'NONE', ( #92 ), #135, .T. ) ;
#61 = VERTEX_POINT ( 'NONE', #101 ) ;
#62 = VERTEX_POINT ( 'NONE', #116 ) ;
#63 = VECTOR ( 'NONE', #1, 1000.000000000000000 ) ;
#64 = ORIENTED_EDGE ( 'NONE', *, *, #12, .T. ) ;
#65 = DIRECTION ( 'NONE',  ( 1.000000000000000000, 0.000000000000000000, 0.000000000000000000 ) ) ;
#66 = CARTESIAN_POINT ( 'NONE',  ( 0.000000000000000000, 0.000000000000000000, 0.000000000000000000 ) ) ;
#67 = FACE_OUTER_BOUND ( 'NONE', #85, .T. ) ;
#68 = LINE ( 'NONE', #136, #3 ) ;
#69 = AXIS2_PLACEMENT_3D ( 'NONE', #98, #10, #114 ) ;
#70 =( GEOMETRIC_REPRESENTATION_CONTEXT ( 3 ) GLOBAL_UNCERTAINTY_ASSIGNED_CONTEXT ( ( #23 ) ) GLOBAL_UNIT_ASSIGNED_CONTEXT ( ( #34, #72, #71 ) ) REPRESENTATION_CONTEXT ( 'NONE', 'WORKASPACE' ) );
#71 =( NAMED_UNIT ( * ) SI_UNIT ( $, .STERADIAN. ) SOLID_ANGLE_UNIT ( ) );
#72 =( NAMED_UNIT ( * ) PLANE_ANGLE_UNIT ( ) SI_UNIT ( $, .RADIAN. ) );
#73 = EDGE_CURVE ( 'NONE', #61, #62, #36, .T. ) ;
#74 = PRODUCT_DEFINITION_CONTEXT ( 'detailed design', #127, 'design' ) ;
#75 = CIRCLE ( 'NONE', #25, 11.00000000000000000 ) ;
#76 = CYLINDRICAL_SURFACE ( 'NONE', #58, 11.00000000000000000 ) ;
#77 = VERTEX_POINT ( 'NONE', #90 ) ;
#78 = DIRECTION ( 'NONE',  ( 1.000000000000000000, 0.000000000000000000, 0.000000000000000000 ) ) ;
#79 = DIRECTION ( 'NONE',  ( -0.000000000000000000, -0.000000000000000000, -1.000000000000000000 ) ) ;
#80 = CARTESIAN_POINT ( 'NONE',  ( 0.000000000000000000, 0.000000000000000000, 0.000000000000000000 ) ) ;
#81 = DIRECTION ( 'NONE',  ( 0.000000000000000000, 0.000000000000000000, 1.000000000000000000 ) ) ;
#82 = MANIFOLD_SOLID_BREP ( 'Boss-Extrude1', #117 ) ;
#83 = CIRCLE ( 'NONE', #93, 11.00000000000000000 ) ;
#84 = ORIENTED_EDGE ( 'NONE', *, *, #134, .T. ) ;
#85 = EDGE_LOOP ( 'NONE', ( #48, #96 ) ) ;
#86 = ADVANCED_BREP_SHAPE_REPRESENTATION ( 'W22', ( #82, #24 ), #139 ) ;
#87 = ORIENTED_EDGE ( 'NONE', *, *, #8, .T. ) ;
#88 = ORIENTED_EDGE ( 'NONE', *, *, #106, .F. ) ;
#89 = AXIS2_PLACEMENT_3D ( 'NONE', #2, #31, #78 ) ;
#90 = CARTESIAN_POINT ( 'NONE',  ( 11.00000000000000000, 1.347111479062088405E-15, 1000.000000000000000 ) ) ;
#91 = CARTESIAN_POINT ( 'NONE',  ( -11.00000000000000000, 0.000000000000000000, 1000.000000000000000 ) ) ;
#92 = FACE_OUTER_BOUND ( 'NONE', #16, .T. ) ;
#93 = AXIS2_PLACEMENT_3D ( 'NONE', #118, #11, #65 ) ;
#94 = PRODUCT_DEFINITION_SHAPE ( 'NONE', 'NONE',  #22 ) ;
#95 = EDGE_LOOP ( 'NONE', ( #88, #15, #111, #123 ) ) ;
#96 = ORIENTED_EDGE ( 'NONE', *, *, #12, .F. ) ;
#97 = PLANE ( 'NONE',  #46 ) ;
#98 = CARTESIAN_POINT ( 'NONE',  ( 0.000000000000000000, 0.000000000000000000, 1000.000000000000000 ) ) ;
#99 = EDGE_CURVE ( 'NONE', #112, #61, #38, .T. ) ;
#100 = PRESENTATION_STYLE_ASSIGNMENT (( #18 ) ) ;
#101 = CARTESIAN_POINT ( 'NONE',  ( -11.00000000000000000, 0.000000000000000000, 0.000000000000000000 ) ) ;
#102 = PRESENTATION_LAYER_ASSIGNMENT (  '', '', ( #26 ) ) ;
#103 = DIRECTION ( 'NONE',  ( -1.000000000000000000, 0.000000000000000000, 0.000000000000000000 ) ) ;
#104 =( LENGTH_UNIT ( ) NAMED_UNIT ( * ) SI_UNIT ( .MILLI., .METRE. ) );
#105 = CARTESIAN_POINT ( 'NONE',  ( 0.000000000000000000, 0.000000000000000000, 0.000000000000000000 ) ) ;
#106 = EDGE_CURVE ( 'NONE', #77, #62, #68, .T. ) ;
#107 = SURFACE_STYLE_FILL_AREA ( #120 ) ;
#108 = STYLED_ITEM ( 'NONE', ( #7 ), #86 ) ;
#109 = ORIENTED_EDGE ( 'NONE', *, *, #8, .F. ) ;
#110 = MECHANICAL_DESIGN_GEOMETRIC_PRESENTATION_REPRESENTATION (  '', ( #108 ), #70 ) ;
#111 = ORIENTED_EDGE ( 'NONE', *, *, #99, .T. ) ;
#112 = VERTEX_POINT ( 'NONE', #91 ) ;
#113 = CARTESIAN_POINT ( 'NONE',  ( 0.000000000000000000, 0.000000000000000000, 1000.000000000000000 ) ) ;
#114 = DIRECTION ( 'NONE',  ( 1.000000000000000000, 0.000000000000000000, -0.000000000000000000 ) ) ;
#115 = DIRECTION ( 'NONE',  ( -0.000000000000000000, -0.000000000000000000, -1.000000000000000000 ) ) ;
#116 = CARTESIAN_POINT ( 'NONE',  ( 11.00000000000000000, 1.347111479062088405E-15, 0.000000000000000000 ) ) ;
#117 = CLOSED_SHELL ( 'NONE', ( #45, #140, #60, #50 ) ) ;
#118 = CARTESIAN_POINT ( 'NONE',  ( 0.000000000000000000, 0.000000000000000000, 1000.000000000000000 ) ) ;
#119 =( GEOMETRIC_REPRESENTATION_CONTEXT ( 3 ) GLOBAL_UNCERTAINTY_ASSIGNED_CONTEXT ( ( #130 ) ) GLOBAL_UNIT_ASSIGNED_CONTEXT ( ( #125, #19, #17 ) ) REPRESENTATION_CONTEXT ( 'NONE', 'WORKASPACE' ) );
#120 = FILL_AREA_STYLE ('',( #32 ) ) ;
#121 = PRODUCT_RELATED_PRODUCT_CATEGORY ( 'part', '', ( #122 ) ) ;
#122 = PRODUCT ( 'W22', 'W22', '', ( #5 ) ) ;
#123 = ORIENTED_EDGE ( 'NONE', *, *, #73, .T. ) ;
#124 = AXIS2_PLACEMENT_3D ( 'NONE', #29, #41, #103 ) ;
#125 =( LENGTH_UNIT ( ) NAMED_UNIT ( * ) SI_UNIT ( .MILLI., .METRE. ) );
#126 = DIRECTION ( 'NONE',  ( 0.000000000000000000, 0.000000000000000000, 1.000000000000000000 ) ) ;
#127 = APPLICATION_CONTEXT ( 'automotive_design' ) ;
#128 = SURFACE_STYLE_FILL_AREA ( #54 ) ;
#129 = DIRECTION ( 'NONE',  ( -1.000000000000000000, 0.000000000000000000, 0.000000000000000000 ) ) ;
#130 = UNCERTAINTY_MEASURE_WITH_UNIT (LENGTH_MEASURE( 1.000000000000000082E-05 ), #125, 'distance_accuracy_value', 'NONE');
#131 = SURFACE_SIDE_STYLE ('',( #128 ) ) ;
#132 = SHAPE_DEFINITION_REPRESENTATION ( #94, #86 ) ;
#133 = UNCERTAINTY_MEASURE_WITH_UNIT (LENGTH_MEASURE( 1.000000000000000082E-05 ), #104, 'distance_accuracy_value', 'NONE');
#134 = EDGE_CURVE ( 'NONE', #112, #77, #83, .T. ) ;
#135 = PLANE ( 'NONE',  #69 ) ;
#136 = CARTESIAN_POINT ( 'NONE',  ( 11.00000000000000000, 1.347111479062088405E-15, 1000.000000000000000 ) ) ;
#137 = FACE_OUTER_BOUND ( 'NONE', #95, .T. ) ;
#138 = DIRECTION ( 'NONE',  ( 1.000000000000000000, 0.000000000000000000, 0.000000000000000000 ) ) ;
#139 =( GEOMETRIC_REPRESENTATION_CONTEXT ( 3 ) GLOBAL_UNCERTAINTY_ASSIGNED_CONTEXT ( ( #133 ) ) GLOBAL_UNIT_ASSIGNED_CONTEXT ( ( #104, #33, #35 ) ) REPRESENTATION_CONTEXT ( 'NONE', 'WORKASPACE' ) );
#140 = ADVANCED_FACE ( 'NONE', ( #137 ), #76, .T. ) ;
ENDSEC;
END-ISO-10303-21;
