ISO-10303-21;
HEADER;
FILE_DESCRIPTION (( 'STEP AP214' ),
    '1' );
FILE_NAME ('W60.STEP',
    '2021-12-29T08:14:00',
    ( '' ),
    ( '' ),
    'SwSTEP 2.0',
    'SolidWorks 2020',
    '' );
FILE_SCHEMA (( 'AUTOMOTIVE_DESIGN' ));
ENDSEC;

DATA;
#1 = LINE ( 'NONE', #37, #110 ) ;
#2 =( NAMED_UNIT ( * ) SI_UNIT ( $, .STERADIAN. ) SOLID_ANGLE_UNIT ( ) );
#3 =( NAMED_UNIT ( * ) SI_UNIT ( $, .STERADIAN. ) SOLID_ANGLE_UNIT ( ) );
#4 =( NAMED_UNIT ( * ) PLANE_ANGLE_UNIT ( ) SI_UNIT ( $, .RADIAN. ) );
#5 = DIRECTION ( 'NONE',  ( -0.000000000000000000, -0.000000000000000000, -1.000000000000000000 ) ) ;
#6 = APPLICATION_PROTOCOL_DEFINITION ( 'draft international standard', 'automotive_design', 1998, #128 ) ;
#7 = PRESENTATION_STYLE_ASSIGNMENT (( #43 ) ) ;
#8 = EDGE_LOOP ( 'NONE', ( #24, #60, #95, #83 ) ) ;
#9 = EDGE_CURVE ( 'NONE', #129, #70, #1, .T. ) ;
#10 = AXIS2_PLACEMENT_3D ( 'NONE', #27, #39, #92 ) ;
#11 = CARTESIAN_POINT ( 'NONE',  ( 0.000000000000000000, 0.000000000000000000, 0.000000000000000000 ) ) ;
#12 = DIRECTION ( 'NONE',  ( 1.000000000000000000, 0.000000000000000000, -0.000000000000000000 ) ) ;
#13 = PRESENTATION_STYLE_ASSIGNMENT (( #38 ) ) ;
#14 = AXIS2_PLACEMENT_3D ( 'NONE', #29, #123, #133 ) ;
#15 = UNCERTAINTY_MEASURE_WITH_UNIT (LENGTH_MEASURE( 1.000000000000000082E-05 ), #98, 'distance_accuracy_value', 'NONE');
#16 =( NAMED_UNIT ( * ) SI_UNIT ( $, .STERADIAN. ) SOLID_ANGLE_UNIT ( ) );
#17 = CIRCLE ( 'NONE', #14, 30.00000000000000000 ) ;
#18 = COLOUR_RGB ( '',0.7921568627450980005, 0.8196078431372548767, 0.9333333333333333481 ) ;
#19 = SURFACE_STYLE_FILL_AREA ( #117 ) ;
#20 = ORIENTED_EDGE ( 'NONE', *, *, #113, .F. ) ;
#21 = CIRCLE ( 'NONE', #139, 30.00000000000000000 ) ;
#22 = DIRECTION ( 'NONE',  ( 0.000000000000000000, 0.000000000000000000, 1.000000000000000000 ) ) ;
#23 = PRODUCT ( 'W60', 'W60', '', ( #77 ) ) ;
#24 = ORIENTED_EDGE ( 'NONE', *, *, #131, .F. ) ;
#25 = ORIENTED_EDGE ( 'NONE', *, *, #9, .F. ) ;
#26 = VERTEX_POINT ( 'NONE', #49 ) ;
#27 = CARTESIAN_POINT ( 'NONE',  ( 0.000000000000000000, 0.000000000000000000, 2500.000000000000000 ) ) ;
#28 = FACE_OUTER_BOUND ( 'NONE', #85, .T. ) ;
#29 = CARTESIAN_POINT ( 'NONE',  ( 0.000000000000000000, 0.000000000000000000, 2500.000000000000000 ) ) ;
#30 = CLOSED_SHELL ( 'NONE', ( #82, #140, #90, #51 ) ) ;
#31 = APPLICATION_CONTEXT ( 'automotive_design' ) ;
#32 = CARTESIAN_POINT ( 'NONE',  ( 0.000000000000000000, 0.000000000000000000, 0.000000000000000000 ) ) ;
#33 =( NAMED_UNIT ( * ) PLANE_ANGLE_UNIT ( ) SI_UNIT ( $, .RADIAN. ) );
#34 = FILL_AREA_STYLE ('',( #127 ) ) ;
#35 = MANIFOLD_SOLID_BREP ( 'Boss-Extrude1', #30 ) ;
#36 = VERTEX_POINT ( 'NONE', #93 ) ;
#37 = CARTESIAN_POINT ( 'NONE',  ( -30.00000000000000000, 0.000000000000000000, 2500.000000000000000 ) ) ;
#38 = SURFACE_STYLE_USAGE ( .BOTH. , #59 ) ;
#39 = DIRECTION ( 'NONE',  ( -0.000000000000000000, -0.000000000000000000, -1.000000000000000000 ) ) ;
#40 = DIRECTION ( 'NONE',  ( 1.000000000000000000, 0.000000000000000000, -0.000000000000000000 ) ) ;
#41 = AXIS2_PLACEMENT_3D ( 'NONE', #136, #101, #12 ) ;
#42 =( LENGTH_UNIT ( ) NAMED_UNIT ( * ) SI_UNIT ( .MILLI., .METRE. ) );
#43 = SURFACE_STYLE_USAGE ( .BOTH. , #81 ) ;
#44 = STYLED_ITEM ( 'NONE', ( #13 ), #35 ) ;
#45 = APPLICATION_PROTOCOL_DEFINITION ( 'draft international standard', 'automotive_design', 1998, #31 ) ;
#46 = SURFACE_STYLE_FILL_AREA ( #34 ) ;
#47 = CIRCLE ( 'NONE', #72, 30.00000000000000000 ) ;
#48 = ORIENTED_EDGE ( 'NONE', *, *, #57, .T. ) ;
#49 = CARTESIAN_POINT ( 'NONE',  ( 30.00000000000000000, 3.673940397442059178E-15, 2500.000000000000000 ) ) ;
#50 = ORIENTED_EDGE ( 'NONE', *, *, #108, .T. ) ;
#51 = ADVANCED_FACE ( 'NONE', ( #28 ), #86, .F. ) ;
#52 = CARTESIAN_POINT ( 'NONE',  ( -30.00000000000000000, 0.000000000000000000, 2500.000000000000000 ) ) ;
#53 = CARTESIAN_POINT ( 'NONE',  ( 0.000000000000000000, 0.000000000000000000, 2500.000000000000000 ) ) ;
#54 = DIRECTION ( 'NONE',  ( 0.000000000000000000, 0.000000000000000000, 1.000000000000000000 ) ) ;
#55 = FACE_OUTER_BOUND ( 'NONE', #66, .T. ) ;
#56 = DIRECTION ( 'NONE',  ( 0.000000000000000000, 0.000000000000000000, 1.000000000000000000 ) ) ;
#57 = EDGE_CURVE ( 'NONE', #129, #26, #17, .T. ) ;
#58 = DIRECTION ( 'NONE',  ( 1.000000000000000000, 0.000000000000000000, 0.000000000000000000 ) ) ;
#59 = SURFACE_SIDE_STYLE ('',( #19 ) ) ;
#60 = ORIENTED_EDGE ( 'NONE', *, *, #57, .F. ) ;
#61 = DIRECTION ( 'NONE',  ( 1.000000000000000000, 0.000000000000000000, 0.000000000000000000 ) ) ;
#62 = FACE_OUTER_BOUND ( 'NONE', #120, .T. ) ;
#63 = CARTESIAN_POINT ( 'NONE',  ( -30.00000000000000000, 0.000000000000000000, 0.000000000000000000 ) ) ;
#64 = VECTOR ( 'NONE', #134, 1000.000000000000000 ) ;
#65 = SHAPE_DEFINITION_REPRESENTATION ( #116, #69 ) ;
#66 = EDGE_LOOP ( 'NONE', ( #20, #104, #50, #25 ) ) ;
#67 = AXIS2_PLACEMENT_3D ( 'NONE', #124, #5, #73 ) ;
#68 = FILL_AREA_STYLE_COLOUR ( '', #115 ) ;
#69 = ADVANCED_BREP_SHAPE_REPRESENTATION ( 'W60', ( #35, #79 ), #126 ) ;
#70 = VERTEX_POINT ( 'NONE', #63 ) ;
#71 = ORIENTED_EDGE ( 'NONE', *, *, #113, .T. ) ;
#72 = AXIS2_PLACEMENT_3D ( 'NONE', #53, #107, #125 ) ;
#73 = DIRECTION ( 'NONE',  ( -1.000000000000000000, 0.000000000000000000, 0.000000000000000000 ) ) ;
#74 =( NAMED_UNIT ( * ) PLANE_ANGLE_UNIT ( ) SI_UNIT ( $, .RADIAN. ) );
#75 = FACE_OUTER_BOUND ( 'NONE', #8, .T. ) ;
#76 = UNCERTAINTY_MEASURE_WITH_UNIT (LENGTH_MEASURE( 1.000000000000000082E-05 ), #80, 'distance_accuracy_value', 'NONE');
#77 = PRODUCT_CONTEXT ( 'NONE', #128, 'mechanical' ) ;
#78 = MECHANICAL_DESIGN_GEOMETRIC_PRESENTATION_REPRESENTATION (  '', ( #44 ), #114 ) ;
#79 = AXIS2_PLACEMENT_3D ( 'NONE', #32, #56, #58 ) ;
#80 =( LENGTH_UNIT ( ) NAMED_UNIT ( * ) SI_UNIT ( .MILLI., .METRE. ) );
#81 = SURFACE_SIDE_STYLE ('',( #46 ) ) ;
#82 = ADVANCED_FACE ( 'NONE', ( #55 ), #89, .T. ) ;
#83 = ORIENTED_EDGE ( 'NONE', *, *, #122, .T. ) ;
#84 = MECHANICAL_DESIGN_GEOMETRIC_PRESENTATION_REPRESENTATION (  '', ( #111 ), #137 ) ;
#85 = EDGE_LOOP ( 'NONE', ( #96, #106 ) ) ;
#86 = PLANE ( 'NONE',  #41 ) ;
#87 = PRODUCT_DEFINITION_FORMATION_WITH_SPECIFIED_SOURCE ( 'ANY', '', #23, .NOT_KNOWN. ) ;
#88 = CARTESIAN_POINT ( 'NONE',  ( 30.00000000000000000, 3.673940397442059178E-15, 2500.000000000000000 ) ) ;
#89 = CYLINDRICAL_SURFACE ( 'NONE', #67, 30.00000000000000000 ) ;
#90 = ADVANCED_FACE ( 'NONE', ( #62 ), #109, .T. ) ;
#91 = UNCERTAINTY_MEASURE_WITH_UNIT (LENGTH_MEASURE( 1.000000000000000082E-05 ), #42, 'distance_accuracy_value', 'NONE');
#92 = DIRECTION ( 'NONE',  ( -1.000000000000000000, 0.000000000000000000, 0.000000000000000000 ) ) ;
#93 = CARTESIAN_POINT ( 'NONE',  ( 30.00000000000000000, 3.673940397442059178E-15, 0.000000000000000000 ) ) ;
#94 = AXIS2_PLACEMENT_3D ( 'NONE', #11, #135, #100 ) ;
#95 = ORIENTED_EDGE ( 'NONE', *, *, #9, .T. ) ;
#96 = ORIENTED_EDGE ( 'NONE', *, *, #122, .F. ) ;
#97 = LINE ( 'NONE', #88, #64 ) ;
#98 =( LENGTH_UNIT ( ) NAMED_UNIT ( * ) SI_UNIT ( .MILLI., .METRE. ) );
#99 = CYLINDRICAL_SURFACE ( 'NONE', #10, 30.00000000000000000 ) ;
#100 = DIRECTION ( 'NONE',  ( 1.000000000000000000, 0.000000000000000000, 0.000000000000000000 ) ) ;
#101 = DIRECTION ( 'NONE',  ( 0.000000000000000000, 0.000000000000000000, 1.000000000000000000 ) ) ;
#102 = PRODUCT_DEFINITION_CONTEXT ( 'detailed design', #31, 'design' ) ;
#103 = PRESENTATION_LAYER_ASSIGNMENT (  '', '', ( #111 ) ) ;
#104 = ORIENTED_EDGE ( 'NONE', *, *, #131, .T. ) ;
#105 = PRODUCT_RELATED_PRODUCT_CATEGORY ( 'part', '', ( #23 ) ) ;
#106 = ORIENTED_EDGE ( 'NONE', *, *, #108, .F. ) ;
#107 = DIRECTION ( 'NONE',  ( 0.000000000000000000, 0.000000000000000000, 1.000000000000000000 ) ) ;
#108 = EDGE_CURVE ( 'NONE', #36, #70, #21, .T. ) ;
#109 = PLANE ( 'NONE',  #118 ) ;
#110 = VECTOR ( 'NONE', #119, 1000.000000000000000 ) ;
#111 = STYLED_ITEM ( 'NONE', ( #7 ), #69 ) ;
#112 = CARTESIAN_POINT ( 'NONE',  ( 0.000000000000000000, 0.000000000000000000, 0.000000000000000000 ) ) ;
#113 = EDGE_CURVE ( 'NONE', #26, #129, #47, .T. ) ;
#114 =( GEOMETRIC_REPRESENTATION_CONTEXT ( 3 ) GLOBAL_UNCERTAINTY_ASSIGNED_CONTEXT ( ( #91 ) ) GLOBAL_UNIT_ASSIGNED_CONTEXT ( ( #42, #4, #3 ) ) REPRESENTATION_CONTEXT ( 'NONE', 'WORKASPACE' ) );
#115 = COLOUR_RGB ( '',0.7921568627450980005, 0.8196078431372548767, 0.9333333333333333481 ) ;
#116 = PRODUCT_DEFINITION_SHAPE ( 'NONE', 'NONE',  #138 ) ;
#117 = FILL_AREA_STYLE ('',( #68 ) ) ;
#118 = AXIS2_PLACEMENT_3D ( 'NONE', #121, #22, #40 ) ;
#119 = DIRECTION ( 'NONE',  ( -0.000000000000000000, -0.000000000000000000, -1.000000000000000000 ) ) ;
#120 = EDGE_LOOP ( 'NONE', ( #48, #71 ) ) ;
#121 = CARTESIAN_POINT ( 'NONE',  ( 0.000000000000000000, 0.000000000000000000, 2500.000000000000000 ) ) ;
#122 = EDGE_CURVE ( 'NONE', #70, #36, #132, .T. ) ;
#123 = DIRECTION ( 'NONE',  ( 0.000000000000000000, 0.000000000000000000, 1.000000000000000000 ) ) ;
#124 = CARTESIAN_POINT ( 'NONE',  ( 0.000000000000000000, 0.000000000000000000, 2500.000000000000000 ) ) ;
#125 = DIRECTION ( 'NONE',  ( 1.000000000000000000, 0.000000000000000000, 0.000000000000000000 ) ) ;
#126 =( GEOMETRIC_REPRESENTATION_CONTEXT ( 3 ) GLOBAL_UNCERTAINTY_ASSIGNED_CONTEXT ( ( #15 ) ) GLOBAL_UNIT_ASSIGNED_CONTEXT ( ( #98, #74, #2 ) ) REPRESENTATION_CONTEXT ( 'NONE', 'WORKASPACE' ) );
#127 = FILL_AREA_STYLE_COLOUR ( '', #18 ) ;
#128 = APPLICATION_CONTEXT ( 'automotive_design' ) ;
#129 = VERTEX_POINT ( 'NONE', #52 ) ;
#130 = PRESENTATION_LAYER_ASSIGNMENT (  '', '', ( #44 ) ) ;
#131 = EDGE_CURVE ( 'NONE', #26, #36, #97, .T. ) ;
#132 = CIRCLE ( 'NONE', #94, 30.00000000000000000 ) ;
#133 = DIRECTION ( 'NONE',  ( 1.000000000000000000, 0.000000000000000000, 0.000000000000000000 ) ) ;
#134 = DIRECTION ( 'NONE',  ( -0.000000000000000000, -0.000000000000000000, -1.000000000000000000 ) ) ;
#135 = DIRECTION ( 'NONE',  ( 0.000000000000000000, 0.000000000000000000, 1.000000000000000000 ) ) ;
#136 = CARTESIAN_POINT ( 'NONE',  ( 0.000000000000000000, 0.000000000000000000, 0.000000000000000000 ) ) ;
#137 =( GEOMETRIC_REPRESENTATION_CONTEXT ( 3 ) GLOBAL_UNCERTAINTY_ASSIGNED_CONTEXT ( ( #76 ) ) GLOBAL_UNIT_ASSIGNED_CONTEXT ( ( #80, #33, #16 ) ) REPRESENTATION_CONTEXT ( 'NONE', 'WORKASPACE' ) );
#138 = PRODUCT_DEFINITION ( 'UNKNOWN', '', #87, #102 ) ;
#139 = AXIS2_PLACEMENT_3D ( 'NONE', #112, #54, #61 ) ;
#140 = ADVANCED_FACE ( 'NONE', ( #75 ), #99, .T. ) ;
ENDSEC;
END-ISO-10303-21;
