ISO-10303-21;
HEADER;
FILE_DESCRIPTION (( 'STEP AP214' ),
    '1' );
FILE_NAME ('W6.STEP',
    '2021-12-29T07:48:46',
    ( '' ),
    ( '' ),
    'SwSTEP 2.0',
    'SolidWorks 2020',
    '' );
FILE_SCHEMA (( 'AUTOMOTIVE_DESIGN' ));
ENDSEC;

DATA;
#1 =( GEOMETRIC_REPRESENTATION_CONTEXT ( 3 ) GLOBAL_UNCERTAINTY_ASSIGNED_CONTEXT ( ( #34 ) ) GLOBAL_UNIT_ASSIGNED_CONTEXT ( ( #192, #117, #130 ) ) REPRESENTATION_CONTEXT ( 'NONE', 'WORKASPACE' ) );
#2 =( GEOMETRIC_REPRESENTATION_CONTEXT ( 3 ) GLOBAL_UNCERTAINTY_ASSIGNED_CONTEXT ( ( #4 ) ) GLOBAL_UNIT_ASSIGNED_CONTEXT ( ( #3, #5, #74 ) ) REPRESENTATION_CONTEXT ( 'NONE', 'WORKASPACE' ) );
#3 =( LENGTH_UNIT ( ) NAMED_UNIT ( * ) SI_UNIT ( .MILLI., .METRE. ) );
#4 = UNCERTAINTY_MEASURE_WITH_UNIT (LENGTH_MEASURE( 1.000000000000000082E-05 ), #3, 'distance_accuracy_value', 'NONE');
#5 =( NAMED_UNIT ( * ) PLANE_ANGLE_UNIT ( ) SI_UNIT ( $, .RADIAN. ) );
#6 =( GEOMETRIC_REPRESENTATION_CONTEXT ( 3 ) GLOBAL_UNCERTAINTY_ASSIGNED_CONTEXT ( ( #169 ) ) GLOBAL_UNIT_ASSIGNED_CONTEXT ( ( #143, #40, #41 ) ) REPRESENTATION_CONTEXT ( 'NONE', 'WORKASPACE' ) );
#7 =( NAMED_UNIT ( * ) PLANE_ANGLE_UNIT ( ) SI_UNIT ( $, .RADIAN. ) );
#8 = DIRECTION ( 'NONE',  ( 1.000000000000000000, 0.000000000000000000, -0.000000000000000000 ) ) ;
#9 = PRODUCT_DEFINITION_SHAPE ( 'NONE', 'NONE',  #30 ) ;
#10 = DIRECTION ( 'NONE',  ( 0.000000000000000000, 0.000000000000000000, 1.000000000000000000 ) ) ;
#11 = SURFACE_STYLE_FILL_AREA ( #129 ) ;
#12 = ORIENTED_EDGE ( 'NONE', *, *, #109, .T. ) ;
#13 =( NAMED_UNIT ( * ) PLANE_ANGLE_UNIT ( ) SI_UNIT ( $, .RADIAN. ) );
#14 = VERTEX_POINT ( 'NONE', #115 ) ;
#15 = CARTESIAN_POINT ( 'NONE',  ( 0.000000000000000000, 0.000000000000000000, 500.0000000000000000 ) ) ;
#16 = FACE_OUTER_BOUND ( 'NONE', #32, .T. ) ;
#17 = CLOSED_SHELL ( 'NONE', ( #145, #57, #200, #66 ) ) ;
#18 = VECTOR ( 'NONE', #161, 1000.000000000000000 ) ;
#19 = EDGE_CURVE ( 'NONE', #154, #104, #132, .T. ) ;
#20 = MECHANICAL_DESIGN_GEOMETRIC_PRESENTATION_REPRESENTATION (  '', ( #122 ), #1 ) ;
#21 = PRESENTATION_STYLE_ASSIGNMENT (( #168 ) ) ;
#22 = FILL_AREA_STYLE ('',( #84 ) ) ;
#23 = PRODUCT_DEFINITION_CONTEXT ( 'detailed design', #64, 'design' ) ;
#24 = FILL_AREA_STYLE_COLOUR ( '', #157 ) ;
#25 = FACE_OUTER_BOUND ( 'NONE', #39, .T. ) ;
#26 =( LENGTH_UNIT ( ) NAMED_UNIT ( * ) SI_UNIT ( .MILLI., .METRE. ) );
#27 = DIRECTION ( 'NONE',  ( 1.000000000000000000, 0.000000000000000000, 0.000000000000000000 ) ) ;
#28 = SURFACE_STYLE_USAGE ( .BOTH. , #116 ) ;
#29 = CIRCLE ( 'NONE', #89, 3.000000000000000444 ) ;
#30 = PRODUCT_DEFINITION ( 'UNKNOWN', '', #65, #23 ) ;
#31 = PRESENTATION_LAYER_ASSIGNMENT (  '', '', ( #112 ) ) ;
#32 = EDGE_LOOP ( 'NONE', ( #163, #51 ) ) ;
#33 =( LENGTH_UNIT ( ) NAMED_UNIT ( * ) SI_UNIT ( .MILLI., .METRE. ) );
#34 = UNCERTAINTY_MEASURE_WITH_UNIT (LENGTH_MEASURE( 1.000000000000000082E-05 ), #192, 'distance_accuracy_value', 'NONE');
#35 = ORIENTED_EDGE ( 'NONE', *, *, #142, .F. ) ;
#36 = AXIS2_PLACEMENT_3D ( 'NONE', #153, #94, #138 ) ;
#37 = DIRECTION ( 'NONE',  ( 0.000000000000000000, 0.000000000000000000, 1.000000000000000000 ) ) ;
#38 = AXIS2_PLACEMENT_3D ( 'NONE', #125, #187, #85 ) ;
#39 = EDGE_LOOP ( 'NONE', ( #50, #178, #162, #120 ) ) ;
#40 =( NAMED_UNIT ( * ) PLANE_ANGLE_UNIT ( ) SI_UNIT ( $, .RADIAN. ) );
#41 =( NAMED_UNIT ( * ) SI_UNIT ( $, .STERADIAN. ) SOLID_ANGLE_UNIT ( ) );
#42 = FILL_AREA_STYLE_COLOUR ( '', #90 ) ;
#43 = CARTESIAN_POINT ( 'NONE',  ( 0.000000000000000000, 0.000000000000000000, 0.000000000000000000 ) ) ;
#44 = SURFACE_STYLE_USAGE ( .BOTH. , #58 ) ;
#45 = APPLICATION_PROTOCOL_DEFINITION ( 'draft international standard', 'automotive_design', 1998, #133 ) ;
#46 = COLOUR_RGB ( '',0.8980392156862745390, 0.8980392156862745390, 0.8980392156862745390 ) ;
#47 =( LENGTH_UNIT ( ) NAMED_UNIT ( * ) SI_UNIT ( .MILLI., .METRE. ) );
#48 = CARTESIAN_POINT ( 'NONE',  ( 3.000000000000000444, 3.673940397442060361E-16, 500.0000000000000000 ) ) ;
#49 = VECTOR ( 'NONE', #102, 1000.000000000000000 ) ;
#50 = ORIENTED_EDGE ( 'NONE', *, *, #19, .F. ) ;
#51 = ORIENTED_EDGE ( 'NONE', *, *, #19, .T. ) ;
#52 = DIRECTION ( 'NONE',  ( 1.000000000000000000, 0.000000000000000000, 0.000000000000000000 ) ) ;
#53 = PRESENTATION_LAYER_ASSIGNMENT (  '', '', ( #82 ) ) ;
#54 = SURFACE_SIDE_STYLE ('',( #191 ) ) ;
#55 = FACE_OUTER_BOUND ( 'NONE', #148, .T. ) ;
#56 = PRESENTATION_STYLE_ASSIGNMENT (( #173 ) ) ;
#57 = ADVANCED_FACE ( 'NONE', ( #55 ), #139, .T. ) ;
#58 = SURFACE_SIDE_STYLE ('',( #126 ) ) ;
#59 = FILL_AREA_STYLE ('',( #80 ) ) ;
#60 = AXIS2_PLACEMENT_3D ( 'NONE', #15, #164, #137 ) ;
#61 = PLANE ( 'NONE',  #177 ) ;
#62 = LINE ( 'NONE', #119, #18 ) ;
#63 =( NAMED_UNIT ( * ) SI_UNIT ( $, .STERADIAN. ) SOLID_ANGLE_UNIT ( ) );
#64 = APPLICATION_CONTEXT ( 'automotive_design' ) ;
#65 = PRODUCT_DEFINITION_FORMATION_WITH_SPECIFIED_SOURCE ( 'ANY', '', #95, .NOT_KNOWN. ) ;
#66 = ADVANCED_FACE ( 'NONE', ( #155 ), #61, .F. ) ;
#67 = DIRECTION ( 'NONE',  ( 1.000000000000000000, 0.000000000000000000, 0.000000000000000000 ) ) ;
#68 =( NAMED_UNIT ( * ) SI_UNIT ( $, .STERADIAN. ) SOLID_ANGLE_UNIT ( ) );
#69 = SURFACE_SIDE_STYLE ('',( #11 ) ) ;
#70 = PRESENTATION_STYLE_ASSIGNMENT (( #183 ) ) ;
#71 = DIRECTION ( 'NONE',  ( 0.000000000000000000, 0.000000000000000000, 1.000000000000000000 ) ) ;
#72 = UNCERTAINTY_MEASURE_WITH_UNIT (LENGTH_MEASURE( 1.000000000000000082E-05 ), #26, 'distance_accuracy_value', 'NONE');
#73 = APPLICATION_PROTOCOL_DEFINITION ( 'draft international standard', 'automotive_design', 1998, #64 ) ;
#74 =( NAMED_UNIT ( * ) SI_UNIT ( $, .STERADIAN. ) SOLID_ANGLE_UNIT ( ) );
#75 = VERTEX_POINT ( 'NONE', #156 ) ;
#76 = ORIENTED_EDGE ( 'NONE', *, *, #179, .T. ) ;
#77 = FILL_AREA_STYLE_COLOUR ( '', #180 ) ;
#78 = COLOUR_RGB ( '',0.8980392156862745390, 0.8980392156862745390, 0.8980392156862745390 ) ;
#79 =( GEOMETRIC_REPRESENTATION_CONTEXT ( 3 ) GLOBAL_UNCERTAINTY_ASSIGNED_CONTEXT ( ( #147 ) ) GLOBAL_UNIT_ASSIGNED_CONTEXT ( ( #188, #141, #63 ) ) REPRESENTATION_CONTEXT ( 'NONE', 'WORKASPACE' ) );
#80 = FILL_AREA_STYLE_COLOUR ( '', #46 ) ;
#81 = DIRECTION ( 'NONE',  ( 0.000000000000000000, 0.000000000000000000, 1.000000000000000000 ) ) ;
#82 = STYLED_ITEM ( 'NONE', ( #56 ), #93 ) ;
#83 = PRESENTATION_STYLE_ASSIGNMENT (( #185 ) ) ;
#84 = FILL_AREA_STYLE_COLOUR ( '', #78 ) ;
#85 = DIRECTION ( 'NONE',  ( -1.000000000000000000, 0.000000000000000000, 0.000000000000000000 ) ) ;
#86 =( NAMED_UNIT ( * ) SI_UNIT ( $, .STERADIAN. ) SOLID_ANGLE_UNIT ( ) );
#87 = DIRECTION ( 'NONE',  ( 1.000000000000000000, 0.000000000000000000, 0.000000000000000000 ) ) ;
#88 = PRESENTATION_STYLE_ASSIGNMENT (( #28 ) ) ;
#89 = AXIS2_PLACEMENT_3D ( 'NONE', #121, #92, #52 ) ;
#90 = COLOUR_RGB ( '',0.7921568627450980005, 0.8196078431372548767, 0.9333333333333333481 ) ;
#91 = DIRECTION ( 'NONE',  ( 1.000000000000000000, 0.000000000000000000, 0.000000000000000000 ) ) ;
#92 = DIRECTION ( 'NONE',  ( 0.000000000000000000, 0.000000000000000000, 1.000000000000000000 ) ) ;
#93 = MANIFOLD_SOLID_BREP ( 'Boss-Extrude1', #17 ) ;
#94 = DIRECTION ( 'NONE',  ( 0.000000000000000000, 0.000000000000000000, 1.000000000000000000 ) ) ;
#95 = PRODUCT ( 'W6', 'W6', '', ( #114 ) ) ;
#96 = SURFACE_STYLE_FILL_AREA ( #59 ) ;
#97 = CARTESIAN_POINT ( 'NONE',  ( 0.000000000000000000, 0.000000000000000000, 0.000000000000000000 ) ) ;
#98 = CARTESIAN_POINT ( 'NONE',  ( 0.000000000000000000, 0.000000000000000000, 500.0000000000000000 ) ) ;
#99 = PRESENTATION_LAYER_ASSIGNMENT (  '', '', ( #150 ) ) ;
#100 = FILL_AREA_STYLE ('',( #77 ) ) ;
#101 = AXIS2_PLACEMENT_3D ( 'NONE', #97, #81, #67 ) ;
#102 = DIRECTION ( 'NONE',  ( -0.000000000000000000, -0.000000000000000000, -1.000000000000000000 ) ) ;
#103 = ORIENTED_EDGE ( 'NONE', *, *, #184, .F. ) ;
#104 = VERTEX_POINT ( 'NONE', #195 ) ;
#105 = PRODUCT_RELATED_PRODUCT_CATEGORY ( 'part', '', ( #95 ) ) ;
#106 = PRESENTATION_LAYER_ASSIGNMENT (  '', '', ( #159 ) ) ;
#107 = ADVANCED_BREP_SHAPE_REPRESENTATION ( 'W6', ( #93, #152 ), #194 ) ;
#108 = STYLED_ITEM ( 'NONE', ( #170 ), #145 ) ;
#109 = EDGE_CURVE ( 'NONE', #104, #14, #62, .T. ) ;
#110 = PLANE ( 'NONE',  #36 ) ;
#111 = DIRECTION ( 'NONE',  ( 0.000000000000000000, 0.000000000000000000, 1.000000000000000000 ) ) ;
#112 = STYLED_ITEM ( 'NONE', ( #70 ), #107 ) ;
#113 = SURFACE_SIDE_STYLE ('',( #96 ) ) ;
#114 = PRODUCT_CONTEXT ( 'NONE', #133, 'mechanical' ) ;
#115 = CARTESIAN_POINT ( 'NONE',  ( -3.000000000000000444, 0.000000000000000000, 0.000000000000000000 ) ) ;
#116 = SURFACE_SIDE_STYLE ('',( #190 ) ) ;
#117 =( NAMED_UNIT ( * ) PLANE_ANGLE_UNIT ( ) SI_UNIT ( $, .RADIAN. ) );
#118 = MECHANICAL_DESIGN_GEOMETRIC_PRESENTATION_REPRESENTATION (  '', ( #159 ), #6 ) ;
#119 = CARTESIAN_POINT ( 'NONE',  ( -3.000000000000000444, 0.000000000000000000, 500.0000000000000000 ) ) ;
#120 = ORIENTED_EDGE ( 'NONE', *, *, #109, .F. ) ;
#121 = CARTESIAN_POINT ( 'NONE',  ( 0.000000000000000000, 0.000000000000000000, 0.000000000000000000 ) ) ;
#122 = STYLED_ITEM ( 'NONE', ( #88 ), #200 ) ;
#123 = AXIS2_PLACEMENT_3D ( 'NONE', #98, #71, #27 ) ;
#124 = FILL_AREA_STYLE ('',( #140 ) ) ;
#125 = CARTESIAN_POINT ( 'NONE',  ( 0.000000000000000000, 0.000000000000000000, 500.0000000000000000 ) ) ;
#126 = SURFACE_STYLE_FILL_AREA ( #22 ) ;
#127 = SHAPE_DEFINITION_REPRESENTATION ( #9, #107 ) ;
#128 = FILL_AREA_STYLE ('',( #42 ) ) ;
#129 = FILL_AREA_STYLE ('',( #24 ) ) ;
#130 =( NAMED_UNIT ( * ) SI_UNIT ( $, .STERADIAN. ) SOLID_ANGLE_UNIT ( ) );
#131 = EDGE_CURVE ( 'NONE', #154, #75, #176, .T. ) ;
#132 = CIRCLE ( 'NONE', #123, 3.000000000000000444 ) ;
#133 = APPLICATION_CONTEXT ( 'automotive_design' ) ;
#134 = UNCERTAINTY_MEASURE_WITH_UNIT (LENGTH_MEASURE( 1.000000000000000082E-05 ), #47, 'distance_accuracy_value', 'NONE');
#135 = MECHANICAL_DESIGN_GEOMETRIC_PRESENTATION_REPRESENTATION (  '', ( #82 ), #166 ) ;
#136 = CYLINDRICAL_SURFACE ( 'NONE', #60, 3.000000000000000444 ) ;
#137 = DIRECTION ( 'NONE',  ( -1.000000000000000000, 0.000000000000000000, 0.000000000000000000 ) ) ;
#138 = DIRECTION ( 'NONE',  ( 1.000000000000000000, 0.000000000000000000, -0.000000000000000000 ) ) ;
#139 = CYLINDRICAL_SURFACE ( 'NONE', #38, 3.000000000000000444 ) ;
#140 = FILL_AREA_STYLE_COLOUR ( '', #196 ) ;
#141 =( NAMED_UNIT ( * ) PLANE_ANGLE_UNIT ( ) SI_UNIT ( $, .RADIAN. ) );
#142 = EDGE_CURVE ( 'NONE', #75, #14, #197, .T. ) ;
#143 =( LENGTH_UNIT ( ) NAMED_UNIT ( * ) SI_UNIT ( .MILLI., .METRE. ) );
#144 = SURFACE_STYLE_FILL_AREA ( #128 ) ;
#145 = ADVANCED_FACE ( 'NONE', ( #25 ), #136, .T. ) ;
#146 =( GEOMETRIC_REPRESENTATION_CONTEXT ( 3 ) GLOBAL_UNCERTAINTY_ASSIGNED_CONTEXT ( ( #72 ) ) GLOBAL_UNIT_ASSIGNED_CONTEXT ( ( #26, #7, #68 ) ) REPRESENTATION_CONTEXT ( 'NONE', 'WORKASPACE' ) );
#147 = UNCERTAINTY_MEASURE_WITH_UNIT (LENGTH_MEASURE( 1.000000000000000082E-05 ), #188, 'distance_accuracy_value', 'NONE');
#148 = EDGE_LOOP ( 'NONE', ( #158, #103, #12, #76 ) ) ;
#149 = ORIENTED_EDGE ( 'NONE', *, *, #179, .F. ) ;
#150 = STYLED_ITEM ( 'NONE', ( #21 ), #57 ) ;
#151 = MECHANICAL_DESIGN_GEOMETRIC_PRESENTATION_REPRESENTATION (  '', ( #108 ), #79 ) ;
#152 = AXIS2_PLACEMENT_3D ( 'NONE', #189, #10, #87 ) ;
#153 = CARTESIAN_POINT ( 'NONE',  ( 0.000000000000000000, 0.000000000000000000, 500.0000000000000000 ) ) ;
#154 = VERTEX_POINT ( 'NONE', #198 ) ;
#155 = FACE_OUTER_BOUND ( 'NONE', #171, .T. ) ;
#156 = CARTESIAN_POINT ( 'NONE',  ( 3.000000000000000444, 3.673940397442060361E-16, 0.000000000000000000 ) ) ;
#157 = COLOUR_RGB ( '',0.7921568627450980005, 0.8196078431372548767, 0.9333333333333333481 ) ;
#158 = ORIENTED_EDGE ( 'NONE', *, *, #131, .F. ) ;
#159 = STYLED_ITEM ( 'NONE', ( #83 ), #66 ) ;
#160 =( NAMED_UNIT ( * ) SI_UNIT ( $, .STERADIAN. ) SOLID_ANGLE_UNIT ( ) );
#161 = DIRECTION ( 'NONE',  ( -0.000000000000000000, -0.000000000000000000, -1.000000000000000000 ) ) ;
#162 = ORIENTED_EDGE ( 'NONE', *, *, #142, .T. ) ;
#163 = ORIENTED_EDGE ( 'NONE', *, *, #184, .T. ) ;
#164 = DIRECTION ( 'NONE',  ( -0.000000000000000000, -0.000000000000000000, -1.000000000000000000 ) ) ;
#165 = CIRCLE ( 'NONE', #167, 3.000000000000000444 ) ;
#166 =( GEOMETRIC_REPRESENTATION_CONTEXT ( 3 ) GLOBAL_UNCERTAINTY_ASSIGNED_CONTEXT ( ( #134 ) ) GLOBAL_UNIT_ASSIGNED_CONTEXT ( ( #47, #13, #160 ) ) REPRESENTATION_CONTEXT ( 'NONE', 'WORKASPACE' ) );
#167 = AXIS2_PLACEMENT_3D ( 'NONE', #199, #37, #91 ) ;
#168 = SURFACE_STYLE_USAGE ( .BOTH. , #113 ) ;
#169 = UNCERTAINTY_MEASURE_WITH_UNIT (LENGTH_MEASURE( 1.000000000000000082E-05 ), #143, 'distance_accuracy_value', 'NONE');
#170 = PRESENTATION_STYLE_ASSIGNMENT (( #44 ) ) ;
#171 = EDGE_LOOP ( 'NONE', ( #149, #35 ) ) ;
#172 = SURFACE_SIDE_STYLE ('',( #144 ) ) ;
#173 = SURFACE_STYLE_USAGE ( .BOTH. , #69 ) ;
#174 =( NAMED_UNIT ( * ) PLANE_ANGLE_UNIT ( ) SI_UNIT ( $, .RADIAN. ) );
#175 = MECHANICAL_DESIGN_GEOMETRIC_PRESENTATION_REPRESENTATION (  '', ( #150 ), #2 ) ;
#176 = LINE ( 'NONE', #48, #49 ) ;
#177 = AXIS2_PLACEMENT_3D ( 'NONE', #43, #111, #8 ) ;
#178 = ORIENTED_EDGE ( 'NONE', *, *, #131, .T. ) ;
#179 = EDGE_CURVE ( 'NONE', #14, #75, #29, .T. ) ;
#180 = COLOUR_RGB ( '',0.8980392156862745390, 0.8980392156862745390, 0.8980392156862745390 ) ;
#181 = UNCERTAINTY_MEASURE_WITH_UNIT (LENGTH_MEASURE( 1.000000000000000082E-05 ), #33, 'distance_accuracy_value', 'NONE');
#182 = PRESENTATION_LAYER_ASSIGNMENT (  '', '', ( #108 ) ) ;
#183 = SURFACE_STYLE_USAGE ( .BOTH. , #172 ) ;
#184 = EDGE_CURVE ( 'NONE', #104, #154, #165, .T. ) ;
#185 = SURFACE_STYLE_USAGE ( .BOTH. , #54 ) ;
#186 = MECHANICAL_DESIGN_GEOMETRIC_PRESENTATION_REPRESENTATION (  '', ( #112 ), #146 ) ;
#187 = DIRECTION ( 'NONE',  ( -0.000000000000000000, -0.000000000000000000, -1.000000000000000000 ) ) ;
#188 =( LENGTH_UNIT ( ) NAMED_UNIT ( * ) SI_UNIT ( .MILLI., .METRE. ) );
#189 = CARTESIAN_POINT ( 'NONE',  ( 0.000000000000000000, 0.000000000000000000, 0.000000000000000000 ) ) ;
#190 = SURFACE_STYLE_FILL_AREA ( #100 ) ;
#191 = SURFACE_STYLE_FILL_AREA ( #124 ) ;
#192 =( LENGTH_UNIT ( ) NAMED_UNIT ( * ) SI_UNIT ( .MILLI., .METRE. ) );
#193 = PRESENTATION_LAYER_ASSIGNMENT (  '', '', ( #122 ) ) ;
#194 =( GEOMETRIC_REPRESENTATION_CONTEXT ( 3 ) GLOBAL_UNCERTAINTY_ASSIGNED_CONTEXT ( ( #181 ) ) GLOBAL_UNIT_ASSIGNED_CONTEXT ( ( #33, #174, #86 ) ) REPRESENTATION_CONTEXT ( 'NONE', 'WORKASPACE' ) );
#195 = CARTESIAN_POINT ( 'NONE',  ( -3.000000000000000444, 0.000000000000000000, 500.0000000000000000 ) ) ;
#196 = COLOUR_RGB ( '',0.8980392156862745390, 0.8980392156862745390, 0.8980392156862745390 ) ;
#197 = CIRCLE ( 'NONE', #101, 3.000000000000000444 ) ;
#198 = CARTESIAN_POINT ( 'NONE',  ( 3.000000000000000444, 3.673940397442060361E-16, 500.0000000000000000 ) ) ;
#199 = CARTESIAN_POINT ( 'NONE',  ( 0.000000000000000000, 0.000000000000000000, 500.0000000000000000 ) ) ;
#200 = ADVANCED_FACE ( 'NONE', ( #16 ), #110, .T. ) ;
ENDSEC;
END-ISO-10303-21;
