ISO-10303-21;
HEADER;
FILE_DESCRIPTION (( 'STEP AP214' ),
    '1' );
FILE_NAME ('W50.STEP',
    '2021-12-29T08:12:39',
    ( '' ),
    ( '' ),
    'SwSTEP 2.0',
    'SolidWorks 2020',
    '' );
FILE_SCHEMA (( 'AUTOMOTIVE_DESIGN' ));
ENDSEC;

DATA;
#1 =( GEOMETRIC_REPRESENTATION_CONTEXT ( 3 ) GLOBAL_UNCERTAINTY_ASSIGNED_CONTEXT ( ( #112 ) ) GLOBAL_UNIT_ASSIGNED_CONTEXT ( ( #2, #73, #14 ) ) REPRESENTATION_CONTEXT ( 'NONE', 'WORKASPACE' ) );
#2 =( LENGTH_UNIT ( ) NAMED_UNIT ( * ) SI_UNIT ( .MILLI., .METRE. ) );
#3 = FACE_OUTER_BOUND ( 'NONE', #111, .T. ) ;
#4 = AXIS2_PLACEMENT_3D ( 'NONE', #76, #106, #50 ) ;
#5 = CARTESIAN_POINT ( 'NONE',  ( 25.00000000000000000, 3.061616997868383043E-15, 2000.000000000000000 ) ) ;
#6 = PLANE ( 'NONE',  #122 ) ;
#7 = DIRECTION ( 'NONE',  ( 1.000000000000000000, 0.000000000000000000, 0.000000000000000000 ) ) ;
#8 =( LENGTH_UNIT ( ) NAMED_UNIT ( * ) SI_UNIT ( .MILLI., .METRE. ) );
#9 =( NAMED_UNIT ( * ) SI_UNIT ( $, .STERADIAN. ) SOLID_ANGLE_UNIT ( ) );
#10 = SHAPE_DEFINITION_REPRESENTATION ( #42, #59 ) ;
#11 = VECTOR ( 'NONE', #51, 1000.000000000000000 ) ;
#12 = AXIS2_PLACEMENT_3D ( 'NONE', #90, #126, #15 ) ;
#13 = VERTEX_POINT ( 'NONE', #27 ) ;
#14 =( NAMED_UNIT ( * ) SI_UNIT ( $, .STERADIAN. ) SOLID_ANGLE_UNIT ( ) );
#15 = DIRECTION ( 'NONE',  ( 1.000000000000000000, 0.000000000000000000, 0.000000000000000000 ) ) ;
#16 = DIRECTION ( 'NONE',  ( 1.000000000000000000, 0.000000000000000000, 0.000000000000000000 ) ) ;
#17 = FILL_AREA_STYLE ('',( #75 ) ) ;
#18 = AXIS2_PLACEMENT_3D ( 'NONE', #25, #137, #74 ) ;
#19 = ADVANCED_FACE ( 'NONE', ( #38 ), #84, .T. ) ;
#20 =( GEOMETRIC_REPRESENTATION_CONTEXT ( 3 ) GLOBAL_UNCERTAINTY_ASSIGNED_CONTEXT ( ( #58 ) ) GLOBAL_UNIT_ASSIGNED_CONTEXT ( ( #67, #68, #9 ) ) REPRESENTATION_CONTEXT ( 'NONE', 'WORKASPACE' ) );
#21 = ORIENTED_EDGE ( 'NONE', *, *, #66, .F. ) ;
#22 = PRODUCT_DEFINITION ( 'UNKNOWN', '', #121, #53 ) ;
#23 = ORIENTED_EDGE ( 'NONE', *, *, #81, .F. ) ;
#24 = ORIENTED_EDGE ( 'NONE', *, *, #117, .T. ) ;
#25 = CARTESIAN_POINT ( 'NONE',  ( 0.000000000000000000, 0.000000000000000000, 2000.000000000000000 ) ) ;
#26 = CARTESIAN_POINT ( 'NONE',  ( 25.00000000000000000, 3.061616997868383043E-15, 2000.000000000000000 ) ) ;
#27 = CARTESIAN_POINT ( 'NONE',  ( -25.00000000000000000, 0.000000000000000000, 0.000000000000000000 ) ) ;
#28 = DIRECTION ( 'NONE',  ( 0.000000000000000000, 0.000000000000000000, 1.000000000000000000 ) ) ;
#29 = PRODUCT_CONTEXT ( 'NONE', #128, 'mechanical' ) ;
#30 = AXIS2_PLACEMENT_3D ( 'NONE', #91, #48, #16 ) ;
#31 = COLOUR_RGB ( '',0.7921568627450980005, 0.8196078431372548767, 0.9333333333333333481 ) ;
#32 = VERTEX_POINT ( 'NONE', #5 ) ;
#33 = PRODUCT_RELATED_PRODUCT_CATEGORY ( 'part', '', ( #97 ) ) ;
#34 = ORIENTED_EDGE ( 'NONE', *, *, #66, .T. ) ;
#35 = EDGE_LOOP ( 'NONE', ( #123, #140 ) ) ;
#36 = AXIS2_PLACEMENT_3D ( 'NONE', #71, #135, #105 ) ;
#37 = CIRCLE ( 'NONE', #133, 25.00000000000000000 ) ;
#38 = FACE_OUTER_BOUND ( 'NONE', #130, .T. ) ;
#39 = CARTESIAN_POINT ( 'NONE',  ( -25.00000000000000000, 0.000000000000000000, 2000.000000000000000 ) ) ;
#40 = CYLINDRICAL_SURFACE ( 'NONE', #113, 25.00000000000000000 ) ;
#41 = PRESENTATION_STYLE_ASSIGNMENT (( #108 ) ) ;
#42 = PRODUCT_DEFINITION_SHAPE ( 'NONE', 'NONE',  #22 ) ;
#43 = DIRECTION ( 'NONE',  ( 0.000000000000000000, 0.000000000000000000, 1.000000000000000000 ) ) ;
#44 =( NAMED_UNIT ( * ) SI_UNIT ( $, .STERADIAN. ) SOLID_ANGLE_UNIT ( ) );
#45 = ADVANCED_FACE ( 'NONE', ( #3 ), #125, .T. ) ;
#46 = STYLED_ITEM ( 'NONE', ( #41 ), #59 ) ;
#47 = LINE ( 'NONE', #26, #11 ) ;
#48 = DIRECTION ( 'NONE',  ( 0.000000000000000000, 0.000000000000000000, 1.000000000000000000 ) ) ;
#49 = EDGE_CURVE ( 'NONE', #32, #102, #132, .T. ) ;
#50 = DIRECTION ( 'NONE',  ( 1.000000000000000000, 0.000000000000000000, -0.000000000000000000 ) ) ;
#51 = DIRECTION ( 'NONE',  ( -0.000000000000000000, -0.000000000000000000, -1.000000000000000000 ) ) ;
#52 = CARTESIAN_POINT ( 'NONE',  ( 0.000000000000000000, 0.000000000000000000, 0.000000000000000000 ) ) ;
#53 = PRODUCT_DEFINITION_CONTEXT ( 'detailed design', #129, 'design' ) ;
#54 = PRESENTATION_LAYER_ASSIGNMENT (  '', '', ( #94 ) ) ;
#55 = SURFACE_STYLE_FILL_AREA ( #96 ) ;
#56 = COLOUR_RGB ( '',0.7921568627450980005, 0.8196078431372548767, 0.9333333333333333481 ) ;
#57 = DIRECTION ( 'NONE',  ( 1.000000000000000000, 0.000000000000000000, 0.000000000000000000 ) ) ;
#58 = UNCERTAINTY_MEASURE_WITH_UNIT (LENGTH_MEASURE( 1.000000000000000082E-05 ), #67, 'distance_accuracy_value', 'NONE');
#59 = ADVANCED_BREP_SHAPE_REPRESENTATION ( 'W50', ( #139, #99 ), #114 ) ;
#60 = EDGE_LOOP ( 'NONE', ( #23, #103, #34, #24 ) ) ;
#61 = UNCERTAINTY_MEASURE_WITH_UNIT (LENGTH_MEASURE( 1.000000000000000082E-05 ), #8, 'distance_accuracy_value', 'NONE');
#62 = EDGE_CURVE ( 'NONE', #70, #13, #110, .T. ) ;
#63 = CARTESIAN_POINT ( 'NONE',  ( 25.00000000000000000, 3.061616997868383043E-15, 0.000000000000000000 ) ) ;
#64 = SURFACE_SIDE_STYLE ('',( #93 ) ) ;
#65 = FACE_OUTER_BOUND ( 'NONE', #60, .T. ) ;
#66 = EDGE_CURVE ( 'NONE', #102, #13, #118, .T. ) ;
#67 =( LENGTH_UNIT ( ) NAMED_UNIT ( * ) SI_UNIT ( .MILLI., .METRE. ) );
#68 =( NAMED_UNIT ( * ) PLANE_ANGLE_UNIT ( ) SI_UNIT ( $, .RADIAN. ) );
#69 = ORIENTED_EDGE ( 'NONE', *, *, #81, .T. ) ;
#70 = VERTEX_POINT ( 'NONE', #63 ) ;
#71 = CARTESIAN_POINT ( 'NONE',  ( 0.000000000000000000, 0.000000000000000000, 0.000000000000000000 ) ) ;
#72 = ADVANCED_FACE ( 'NONE', ( #116 ), #6, .F. ) ;
#73 =( NAMED_UNIT ( * ) PLANE_ANGLE_UNIT ( ) SI_UNIT ( $, .RADIAN. ) );
#74 = DIRECTION ( 'NONE',  ( -1.000000000000000000, 0.000000000000000000, 0.000000000000000000 ) ) ;
#75 = FILL_AREA_STYLE_COLOUR ( '', #31 ) ;
#76 = CARTESIAN_POINT ( 'NONE',  ( 0.000000000000000000, 0.000000000000000000, 2000.000000000000000 ) ) ;
#77 = APPLICATION_PROTOCOL_DEFINITION ( 'draft international standard', 'automotive_design', 1998, #129 ) ;
#78 = VECTOR ( 'NONE', #115, 1000.000000000000000 ) ;
#79 = CIRCLE ( 'NONE', #12, 25.00000000000000000 ) ;
#80 = MECHANICAL_DESIGN_GEOMETRIC_PRESENTATION_REPRESENTATION (  '', ( #94 ), #1 ) ;
#81 = EDGE_CURVE ( 'NONE', #32, #70, #47, .T. ) ;
#82 = ORIENTED_EDGE ( 'NONE', *, *, #62, .T. ) ;
#83 = PRESENTATION_LAYER_ASSIGNMENT (  '', '', ( #46 ) ) ;
#84 = CYLINDRICAL_SURFACE ( 'NONE', #18, 25.00000000000000000 ) ;
#85 = DIRECTION ( 'NONE',  ( 0.000000000000000000, 0.000000000000000000, 1.000000000000000000 ) ) ;
#86 = SURFACE_STYLE_USAGE ( .BOTH. , #64 ) ;
#87 = APPLICATION_PROTOCOL_DEFINITION ( 'draft international standard', 'automotive_design', 1998, #128 ) ;
#88 = ORIENTED_EDGE ( 'NONE', *, *, #134, .T. ) ;
#89 = CARTESIAN_POINT ( 'NONE',  ( -25.00000000000000000, 0.000000000000000000, 2000.000000000000000 ) ) ;
#90 = CARTESIAN_POINT ( 'NONE',  ( 0.000000000000000000, 0.000000000000000000, 2000.000000000000000 ) ) ;
#91 = CARTESIAN_POINT ( 'NONE',  ( 0.000000000000000000, 0.000000000000000000, 2000.000000000000000 ) ) ;
#92 = CARTESIAN_POINT ( 'NONE',  ( 0.000000000000000000, 0.000000000000000000, 2000.000000000000000 ) ) ;
#93 = SURFACE_STYLE_FILL_AREA ( #17 ) ;
#94 = STYLED_ITEM ( 'NONE', ( #127 ), #139 ) ;
#95 = MECHANICAL_DESIGN_GEOMETRIC_PRESENTATION_REPRESENTATION (  '', ( #46 ), #20 ) ;
#96 = FILL_AREA_STYLE ('',( #109 ) ) ;
#97 = PRODUCT ( 'W50', 'W50', '', ( #29 ) ) ;
#98 = CARTESIAN_POINT ( 'NONE',  ( 0.000000000000000000, 0.000000000000000000, 0.000000000000000000 ) ) ;
#99 = AXIS2_PLACEMENT_3D ( 'NONE', #98, #43, #57 ) ;
#100 = ADVANCED_FACE ( 'NONE', ( #65 ), #40, .T. ) ;
#101 = ORIENTED_EDGE ( 'NONE', *, *, #49, .F. ) ;
#102 = VERTEX_POINT ( 'NONE', #39 ) ;
#103 = ORIENTED_EDGE ( 'NONE', *, *, #134, .F. ) ;
#104 = CLOSED_SHELL ( 'NONE', ( #19, #100, #45, #72 ) ) ;
#105 = DIRECTION ( 'NONE',  ( 1.000000000000000000, 0.000000000000000000, 0.000000000000000000 ) ) ;
#106 = DIRECTION ( 'NONE',  ( 0.000000000000000000, 0.000000000000000000, 1.000000000000000000 ) ) ;
#107 = CARTESIAN_POINT ( 'NONE',  ( 0.000000000000000000, 0.000000000000000000, 0.000000000000000000 ) ) ;
#108 = SURFACE_STYLE_USAGE ( .BOTH. , #138 ) ;
#109 = FILL_AREA_STYLE_COLOUR ( '', #56 ) ;
#110 = CIRCLE ( 'NONE', #36, 25.00000000000000000 ) ;
#111 = EDGE_LOOP ( 'NONE', ( #88, #124 ) ) ;
#112 = UNCERTAINTY_MEASURE_WITH_UNIT (LENGTH_MEASURE( 1.000000000000000082E-05 ), #2, 'distance_accuracy_value', 'NONE');
#113 = AXIS2_PLACEMENT_3D ( 'NONE', #92, #136, #131 ) ;
#114 =( GEOMETRIC_REPRESENTATION_CONTEXT ( 3 ) GLOBAL_UNCERTAINTY_ASSIGNED_CONTEXT ( ( #61 ) ) GLOBAL_UNIT_ASSIGNED_CONTEXT ( ( #8, #120, #44 ) ) REPRESENTATION_CONTEXT ( 'NONE', 'WORKASPACE' ) );
#115 = DIRECTION ( 'NONE',  ( -0.000000000000000000, -0.000000000000000000, -1.000000000000000000 ) ) ;
#116 = FACE_OUTER_BOUND ( 'NONE', #35, .T. ) ;
#117 = EDGE_CURVE ( 'NONE', #13, #70, #37, .T. ) ;
#118 = LINE ( 'NONE', #89, #78 ) ;
#119 = DIRECTION ( 'NONE',  ( 1.000000000000000000, 0.000000000000000000, -0.000000000000000000 ) ) ;
#120 =( NAMED_UNIT ( * ) PLANE_ANGLE_UNIT ( ) SI_UNIT ( $, .RADIAN. ) );
#121 = PRODUCT_DEFINITION_FORMATION_WITH_SPECIFIED_SOURCE ( 'ANY', '', #97, .NOT_KNOWN. ) ;
#122 = AXIS2_PLACEMENT_3D ( 'NONE', #52, #28, #119 ) ;
#123 = ORIENTED_EDGE ( 'NONE', *, *, #117, .F. ) ;
#124 = ORIENTED_EDGE ( 'NONE', *, *, #49, .T. ) ;
#125 = PLANE ( 'NONE',  #4 ) ;
#126 = DIRECTION ( 'NONE',  ( 0.000000000000000000, 0.000000000000000000, 1.000000000000000000 ) ) ;
#127 = PRESENTATION_STYLE_ASSIGNMENT (( #86 ) ) ;
#128 = APPLICATION_CONTEXT ( 'automotive_design' ) ;
#129 = APPLICATION_CONTEXT ( 'automotive_design' ) ;
#130 = EDGE_LOOP ( 'NONE', ( #101, #69, #82, #21 ) ) ;
#131 = DIRECTION ( 'NONE',  ( -1.000000000000000000, 0.000000000000000000, 0.000000000000000000 ) ) ;
#132 = CIRCLE ( 'NONE', #30, 25.00000000000000000 ) ;
#133 = AXIS2_PLACEMENT_3D ( 'NONE', #107, #85, #7 ) ;
#134 = EDGE_CURVE ( 'NONE', #102, #32, #79, .T. ) ;
#135 = DIRECTION ( 'NONE',  ( 0.000000000000000000, 0.000000000000000000, 1.000000000000000000 ) ) ;
#136 = DIRECTION ( 'NONE',  ( -0.000000000000000000, -0.000000000000000000, -1.000000000000000000 ) ) ;
#137 = DIRECTION ( 'NONE',  ( -0.000000000000000000, -0.000000000000000000, -1.000000000000000000 ) ) ;
#138 = SURFACE_SIDE_STYLE ('',( #55 ) ) ;
#139 = MANIFOLD_SOLID_BREP ( 'Boss-Extrude1', #104 ) ;
#140 = ORIENTED_EDGE ( 'NONE', *, *, #62, .F. ) ;
ENDSEC;
END-ISO-10303-21;
