ISO-10303-21;
HEADER;
FILE_DESCRIPTION (( 'STEP AP214' ),
    '1' );
FILE_NAME ('W35.STEP',
    '2021-12-29T08:11:38',
    ( '' ),
    ( '' ),
    'SwSTEP 2.0',
    'SolidWorks 2020',
    '' );
FILE_SCHEMA (( 'AUTOMOTIVE_DESIGN' ));
ENDSEC;

DATA;
#1 = PRODUCT_CONTEXT ( 'NONE', #45, 'mechanical' ) ;
#2 = EDGE_CURVE ( 'NONE', #91, #58, #110, .T. ) ;
#3 = CARTESIAN_POINT ( 'NONE',  ( -17.50000000000000355, 0.000000000000000000, 2000.000000000000000 ) ) ;
#4 = ORIENTED_EDGE ( 'NONE', *, *, #86, .F. ) ;
#5 = UNCERTAINTY_MEASURE_WITH_UNIT (LENGTH_MEASURE( 1.000000000000000082E-05 ), #134, 'distance_accuracy_value', 'NONE');
#6 =( NAMED_UNIT ( * ) PLANE_ANGLE_UNIT ( ) SI_UNIT ( $, .RADIAN. ) );
#7 =( NAMED_UNIT ( * ) SI_UNIT ( $, .STERADIAN. ) SOLID_ANGLE_UNIT ( ) );
#8 = DIRECTION ( 'NONE',  ( -1.000000000000000000, 0.000000000000000000, 0.000000000000000000 ) ) ;
#9 = APPLICATION_PROTOCOL_DEFINITION ( 'draft international standard', 'automotive_design', 1998, #94 ) ;
#10 =( NAMED_UNIT ( * ) PLANE_ANGLE_UNIT ( ) SI_UNIT ( $, .RADIAN. ) );
#11 =( GEOMETRIC_REPRESENTATION_CONTEXT ( 3 ) GLOBAL_UNCERTAINTY_ASSIGNED_CONTEXT ( ( #138 ) ) GLOBAL_UNIT_ASSIGNED_CONTEXT ( ( #18, #6, #7 ) ) REPRESENTATION_CONTEXT ( 'NONE', 'WORKASPACE' ) );
#12 = SURFACE_SIDE_STYLE ('',( #130 ) ) ;
#13 = PRODUCT_RELATED_PRODUCT_CATEGORY ( 'part', '', ( #78 ) ) ;
#14 = CLOSED_SHELL ( 'NONE', ( #22, #35, #80, #89 ) ) ;
#15 = CARTESIAN_POINT ( 'NONE',  ( 17.50000000000000355, 2.143131898507868643E-15, 2000.000000000000000 ) ) ;
#16 = ORIENTED_EDGE ( 'NONE', *, *, #133, .F. ) ;
#17 = DIRECTION ( 'NONE',  ( 1.000000000000000000, 0.000000000000000000, 0.000000000000000000 ) ) ;
#18 =( LENGTH_UNIT ( ) NAMED_UNIT ( * ) SI_UNIT ( .MILLI., .METRE. ) );
#19 = DIRECTION ( 'NONE',  ( -0.000000000000000000, -0.000000000000000000, -1.000000000000000000 ) ) ;
#20 = AXIS2_PLACEMENT_3D ( 'NONE', #125, #31, #101 ) ;
#21 = FACE_OUTER_BOUND ( 'NONE', #71, .T. ) ;
#22 = ADVANCED_FACE ( 'NONE', ( #90 ), #108, .T. ) ;
#23 = ORIENTED_EDGE ( 'NONE', *, *, #139, .T. ) ;
#24 = EDGE_LOOP ( 'NONE', ( #16, #124, #120, #23 ) ) ;
#25 = VERTEX_POINT ( 'NONE', #15 ) ;
#26 = DIRECTION ( 'NONE',  ( 1.000000000000000000, 0.000000000000000000, -0.000000000000000000 ) ) ;
#27 = SURFACE_SIDE_STYLE ('',( #39 ) ) ;
#28 = CYLINDRICAL_SURFACE ( 'NONE', #85, 17.50000000000000355 ) ;
#29 = DIRECTION ( 'NONE',  ( 1.000000000000000000, 0.000000000000000000, 0.000000000000000000 ) ) ;
#30 = CIRCLE ( 'NONE', #104, 17.50000000000000355 ) ;
#31 = DIRECTION ( 'NONE',  ( 0.000000000000000000, 0.000000000000000000, 1.000000000000000000 ) ) ;
#32 = PRESENTATION_LAYER_ASSIGNMENT (  '', '', ( #121 ) ) ;
#33 = COLOUR_RGB ( '',0.7921568627450980005, 0.8196078431372548767, 0.9333333333333333481 ) ;
#34 = EDGE_LOOP ( 'NONE', ( #4, #59, #47, #122 ) ) ;
#35 = ADVANCED_FACE ( 'NONE', ( #76 ), #28, .T. ) ;
#36 = VERTEX_POINT ( 'NONE', #93 ) ;
#37 = CARTESIAN_POINT ( 'NONE',  ( 0.000000000000000000, 0.000000000000000000, 2000.000000000000000 ) ) ;
#38 = DIRECTION ( 'NONE',  ( 0.000000000000000000, 0.000000000000000000, 1.000000000000000000 ) ) ;
#39 = SURFACE_STYLE_FILL_AREA ( #126 ) ;
#40 = AXIS2_PLACEMENT_3D ( 'NONE', #50, #63, #29 ) ;
#41 = PRESENTATION_STYLE_ASSIGNMENT (( #97 ) ) ;
#42 = UNCERTAINTY_MEASURE_WITH_UNIT (LENGTH_MEASURE( 1.000000000000000082E-05 ), #113, 'distance_accuracy_value', 'NONE');
#43 = FILL_AREA_STYLE ('',( #83 ) ) ;
#44 = AXIS2_PLACEMENT_3D ( 'NONE', #140, #111, #17 ) ;
#45 = APPLICATION_CONTEXT ( 'automotive_design' ) ;
#46 = ORIENTED_EDGE ( 'NONE', *, *, #64, .T. ) ;
#47 = ORIENTED_EDGE ( 'NONE', *, *, #106, .T. ) ;
#48 = CARTESIAN_POINT ( 'NONE',  ( -17.50000000000000355, 0.000000000000000000, 0.000000000000000000 ) ) ;
#49 =( NAMED_UNIT ( * ) PLANE_ANGLE_UNIT ( ) SI_UNIT ( $, .RADIAN. ) );
#50 = CARTESIAN_POINT ( 'NONE',  ( 0.000000000000000000, 0.000000000000000000, 0.000000000000000000 ) ) ;
#51 = AXIS2_PLACEMENT_3D ( 'NONE', #128, #115, #26 ) ;
#52 = PLANE ( 'NONE',  #51 ) ;
#53 = MECHANICAL_DESIGN_GEOMETRIC_PRESENTATION_REPRESENTATION (  '', ( #81 ), #127 ) ;
#54 = DIRECTION ( 'NONE',  ( -0.000000000000000000, -0.000000000000000000, -1.000000000000000000 ) ) ;
#55 = APPLICATION_PROTOCOL_DEFINITION ( 'draft international standard', 'automotive_design', 1998, #45 ) ;
#56 = PRODUCT_DEFINITION ( 'UNKNOWN', '', #73, #123 ) ;
#57 = VECTOR ( 'NONE', #99, 1000.000000000000000 ) ;
#58 = VERTEX_POINT ( 'NONE', #48 ) ;
#59 = ORIENTED_EDGE ( 'NONE', *, *, #133, .T. ) ;
#60 = CIRCLE ( 'NONE', #40, 17.50000000000000355 ) ;
#61 = DIRECTION ( 'NONE',  ( -1.000000000000000000, 0.000000000000000000, 0.000000000000000000 ) ) ;
#62 = ORIENTED_EDGE ( 'NONE', *, *, #139, .F. ) ;
#63 = DIRECTION ( 'NONE',  ( 0.000000000000000000, 0.000000000000000000, 1.000000000000000000 ) ) ;
#64 = EDGE_CURVE ( 'NONE', #91, #25, #70, .T. ) ;
#65 = MECHANICAL_DESIGN_GEOMETRIC_PRESENTATION_REPRESENTATION (  '', ( #121 ), #11 ) ;
#66 =( NAMED_UNIT ( * ) SI_UNIT ( $, .STERADIAN. ) SOLID_ANGLE_UNIT ( ) );
#67 =( NAMED_UNIT ( * ) SI_UNIT ( $, .STERADIAN. ) SOLID_ANGLE_UNIT ( ) );
#68 = AXIS2_PLACEMENT_3D ( 'NONE', #117, #103, #118 ) ;
#69 = CARTESIAN_POINT ( 'NONE',  ( 0.000000000000000000, 0.000000000000000000, 2000.000000000000000 ) ) ;
#70 = CIRCLE ( 'NONE', #107, 17.50000000000000355 ) ;
#71 = EDGE_LOOP ( 'NONE', ( #62, #119 ) ) ;
#72 = DIRECTION ( 'NONE',  ( 0.000000000000000000, 0.000000000000000000, 1.000000000000000000 ) ) ;
#73 = PRODUCT_DEFINITION_FORMATION_WITH_SPECIFIED_SOURCE ( 'ANY', '', #78, .NOT_KNOWN. ) ;
#74 = SURFACE_STYLE_USAGE ( .BOTH. , #27 ) ;
#75 = CARTESIAN_POINT ( 'NONE',  ( -17.50000000000000355, 0.000000000000000000, 2000.000000000000000 ) ) ;
#76 = FACE_OUTER_BOUND ( 'NONE', #24, .T. ) ;
#77 = DIRECTION ( 'NONE',  ( 1.000000000000000000, 0.000000000000000000, 0.000000000000000000 ) ) ;
#78 = PRODUCT ( 'W35', 'W35', '', ( #1 ) ) ;
#79 = SHAPE_DEFINITION_REPRESENTATION ( #114, #82 ) ;
#80 = ADVANCED_FACE ( 'NONE', ( #137 ), #52, .T. ) ;
#81 = STYLED_ITEM ( 'NONE', ( #41 ), #82 ) ;
#82 = ADVANCED_BREP_SHAPE_REPRESENTATION ( 'W35', ( #116, #68 ), #102 ) ;
#83 = FILL_AREA_STYLE_COLOUR ( '', #33 ) ;
#84 = ORIENTED_EDGE ( 'NONE', *, *, #86, .T. ) ;
#85 = AXIS2_PLACEMENT_3D ( 'NONE', #37, #19, #8 ) ;
#86 = EDGE_CURVE ( 'NONE', #25, #91, #30, .T. ) ;
#87 = FILL_AREA_STYLE_COLOUR ( '', #131 ) ;
#88 = PLANE ( 'NONE',  #20 ) ;
#89 = ADVANCED_FACE ( 'NONE', ( #21 ), #88, .F. ) ;
#90 = FACE_OUTER_BOUND ( 'NONE', #34, .T. ) ;
#91 = VERTEX_POINT ( 'NONE', #75 ) ;
#92 = AXIS2_PLACEMENT_3D ( 'NONE', #69, #105, #61 ) ;
#93 = CARTESIAN_POINT ( 'NONE',  ( 17.50000000000000355, 2.143131898507868643E-15, 0.000000000000000000 ) ) ;
#94 = APPLICATION_CONTEXT ( 'automotive_design' ) ;
#95 = CARTESIAN_POINT ( 'NONE',  ( 0.000000000000000000, 0.000000000000000000, 2000.000000000000000 ) ) ;
#96 = CARTESIAN_POINT ( 'NONE',  ( 0.000000000000000000, 0.000000000000000000, 2000.000000000000000 ) ) ;
#97 = SURFACE_STYLE_USAGE ( .BOTH. , #12 ) ;
#98 = CIRCLE ( 'NONE', #44, 17.50000000000000355 ) ;
#99 = DIRECTION ( 'NONE',  ( -0.000000000000000000, -0.000000000000000000, -1.000000000000000000 ) ) ;
#100 = PRESENTATION_STYLE_ASSIGNMENT (( #74 ) ) ;
#101 = DIRECTION ( 'NONE',  ( 1.000000000000000000, 0.000000000000000000, -0.000000000000000000 ) ) ;
#102 =( GEOMETRIC_REPRESENTATION_CONTEXT ( 3 ) GLOBAL_UNCERTAINTY_ASSIGNED_CONTEXT ( ( #42 ) ) GLOBAL_UNIT_ASSIGNED_CONTEXT ( ( #113, #49, #66 ) ) REPRESENTATION_CONTEXT ( 'NONE', 'WORKASPACE' ) );
#103 = DIRECTION ( 'NONE',  ( 0.000000000000000000, 0.000000000000000000, 1.000000000000000000 ) ) ;
#104 = AXIS2_PLACEMENT_3D ( 'NONE', #96, #72, #136 ) ;
#105 = DIRECTION ( 'NONE',  ( -0.000000000000000000, -0.000000000000000000, -1.000000000000000000 ) ) ;
#106 = EDGE_CURVE ( 'NONE', #36, #58, #98, .T. ) ;
#107 = AXIS2_PLACEMENT_3D ( 'NONE', #95, #38, #77 ) ;
#108 = CYLINDRICAL_SURFACE ( 'NONE', #92, 17.50000000000000355 ) ;
#109 = PRESENTATION_LAYER_ASSIGNMENT (  '', '', ( #81 ) ) ;
#110 = LINE ( 'NONE', #3, #57 ) ;
#111 = DIRECTION ( 'NONE',  ( 0.000000000000000000, 0.000000000000000000, 1.000000000000000000 ) ) ;
#112 = CARTESIAN_POINT ( 'NONE',  ( 17.50000000000000355, 2.143131898507868643E-15, 2000.000000000000000 ) ) ;
#113 =( LENGTH_UNIT ( ) NAMED_UNIT ( * ) SI_UNIT ( .MILLI., .METRE. ) );
#114 = PRODUCT_DEFINITION_SHAPE ( 'NONE', 'NONE',  #56 ) ;
#115 = DIRECTION ( 'NONE',  ( 0.000000000000000000, 0.000000000000000000, 1.000000000000000000 ) ) ;
#116 = MANIFOLD_SOLID_BREP ( 'Boss-Extrude1', #14 ) ;
#117 = CARTESIAN_POINT ( 'NONE',  ( 0.000000000000000000, 0.000000000000000000, 0.000000000000000000 ) ) ;
#118 = DIRECTION ( 'NONE',  ( 1.000000000000000000, 0.000000000000000000, 0.000000000000000000 ) ) ;
#119 = ORIENTED_EDGE ( 'NONE', *, *, #106, .F. ) ;
#120 = ORIENTED_EDGE ( 'NONE', *, *, #2, .T. ) ;
#121 = STYLED_ITEM ( 'NONE', ( #100 ), #116 ) ;
#122 = ORIENTED_EDGE ( 'NONE', *, *, #2, .F. ) ;
#123 = PRODUCT_DEFINITION_CONTEXT ( 'detailed design', #94, 'design' ) ;
#124 = ORIENTED_EDGE ( 'NONE', *, *, #64, .F. ) ;
#125 = CARTESIAN_POINT ( 'NONE',  ( 0.000000000000000000, 0.000000000000000000, 0.000000000000000000 ) ) ;
#126 = FILL_AREA_STYLE ('',( #87 ) ) ;
#127 =( GEOMETRIC_REPRESENTATION_CONTEXT ( 3 ) GLOBAL_UNCERTAINTY_ASSIGNED_CONTEXT ( ( #5 ) ) GLOBAL_UNIT_ASSIGNED_CONTEXT ( ( #134, #10, #67 ) ) REPRESENTATION_CONTEXT ( 'NONE', 'WORKASPACE' ) );
#128 = CARTESIAN_POINT ( 'NONE',  ( 0.000000000000000000, 0.000000000000000000, 2000.000000000000000 ) ) ;
#129 = LINE ( 'NONE', #112, #132 ) ;
#130 = SURFACE_STYLE_FILL_AREA ( #43 ) ;
#131 = COLOUR_RGB ( '',0.7921568627450980005, 0.8196078431372548767, 0.9333333333333333481 ) ;
#132 = VECTOR ( 'NONE', #54, 1000.000000000000000 ) ;
#133 = EDGE_CURVE ( 'NONE', #25, #36, #129, .T. ) ;
#134 =( LENGTH_UNIT ( ) NAMED_UNIT ( * ) SI_UNIT ( .MILLI., .METRE. ) );
#135 = EDGE_LOOP ( 'NONE', ( #46, #84 ) ) ;
#136 = DIRECTION ( 'NONE',  ( 1.000000000000000000, 0.000000000000000000, 0.000000000000000000 ) ) ;
#137 = FACE_OUTER_BOUND ( 'NONE', #135, .T. ) ;
#138 = UNCERTAINTY_MEASURE_WITH_UNIT (LENGTH_MEASURE( 1.000000000000000082E-05 ), #18, 'distance_accuracy_value', 'NONE');
#139 = EDGE_CURVE ( 'NONE', #58, #36, #60, .T. ) ;
#140 = CARTESIAN_POINT ( 'NONE',  ( 0.000000000000000000, 0.000000000000000000, 0.000000000000000000 ) ) ;
ENDSEC;
END-ISO-10303-21;
