ISO-10303-21;
HEADER;
FILE_DESCRIPTION (( 'STEP AP214' ),
    '1' );
FILE_NAME ('W28.STEP',
    '2021-12-29T08:09:30',
    ( '' ),
    ( '' ),
    'SwSTEP 2.0',
    'SolidWorks 2020',
    '' );
FILE_SCHEMA (( 'AUTOMOTIVE_DESIGN' ));
ENDSEC;

DATA;
#1 = DIRECTION ( 'NONE',  ( -0.000000000000000000, -0.000000000000000000, -1.000000000000000000 ) ) ;
#2 = EDGE_CURVE ( 'NONE', #10, #56, #116, .T. ) ;
#3 = CLOSED_SHELL ( 'NONE', ( #99, #68, #25, #57 ) ) ;
#4 = SURFACE_STYLE_USAGE ( .BOTH. , #80 ) ;
#5 = DIRECTION ( 'NONE',  ( -0.000000000000000000, -0.000000000000000000, -1.000000000000000000 ) ) ;
#6 = CIRCLE ( 'NONE', #30, 14.00000000000000000 ) ;
#7 = CYLINDRICAL_SURFACE ( 'NONE', #73, 14.00000000000000000 ) ;
#8 = CARTESIAN_POINT ( 'NONE',  ( -14.00000000000000000, 0.000000000000000000, 1000.000000000000000 ) ) ;
#9 = ORIENTED_EDGE ( 'NONE', *, *, #79, .F. ) ;
#10 = VERTEX_POINT ( 'NONE', #72 ) ;
#11 =( NAMED_UNIT ( * ) PLANE_ANGLE_UNIT ( ) SI_UNIT ( $, .RADIAN. ) );
#12 = UNCERTAINTY_MEASURE_WITH_UNIT (LENGTH_MEASURE( 1.000000000000000082E-05 ), #27, 'distance_accuracy_value', 'NONE');
#13 = CYLINDRICAL_SURFACE ( 'NONE', #90, 14.00000000000000000 ) ;
#14 = CARTESIAN_POINT ( 'NONE',  ( 0.000000000000000000, 0.000000000000000000, 0.000000000000000000 ) ) ;
#15 =( GEOMETRIC_REPRESENTATION_CONTEXT ( 3 ) GLOBAL_UNCERTAINTY_ASSIGNED_CONTEXT ( ( #96 ) ) GLOBAL_UNIT_ASSIGNED_CONTEXT ( ( #130, #22, #47 ) ) REPRESENTATION_CONTEXT ( 'NONE', 'WORKASPACE' ) );
#16 = CARTESIAN_POINT ( 'NONE',  ( 0.000000000000000000, 0.000000000000000000, 0.000000000000000000 ) ) ;
#17 = DIRECTION ( 'NONE',  ( 0.000000000000000000, 0.000000000000000000, 1.000000000000000000 ) ) ;
#18 = ORIENTED_EDGE ( 'NONE', *, *, #126, .T. ) ;
#19 = ORIENTED_EDGE ( 'NONE', *, *, #126, .F. ) ;
#20 = SURFACE_SIDE_STYLE ('',( #118 ) ) ;
#21 = PRODUCT_CONTEXT ( 'NONE', #131, 'mechanical' ) ;
#22 =( NAMED_UNIT ( * ) PLANE_ANGLE_UNIT ( ) SI_UNIT ( $, .RADIAN. ) );
#23 = APPLICATION_PROTOCOL_DEFINITION ( 'draft international standard', 'automotive_design', 1998, #98 ) ;
#24 = DIRECTION ( 'NONE',  ( 0.000000000000000000, 0.000000000000000000, 1.000000000000000000 ) ) ;
#25 = ADVANCED_FACE ( 'NONE', ( #104 ), #31, .T. ) ;
#26 = FACE_OUTER_BOUND ( 'NONE', #74, .T. ) ;
#27 =( LENGTH_UNIT ( ) NAMED_UNIT ( * ) SI_UNIT ( .MILLI., .METRE. ) );
#28 = MECHANICAL_DESIGN_GEOMETRIC_PRESENTATION_REPRESENTATION (  '', ( #40 ), #101 ) ;
#29 = CARTESIAN_POINT ( 'NONE',  ( 0.000000000000000000, 0.000000000000000000, 0.000000000000000000 ) ) ;
#30 = AXIS2_PLACEMENT_3D ( 'NONE', #14, #24, #50 ) ;
#31 = PLANE ( 'NONE',  #59 ) ;
#32 = AXIS2_PLACEMENT_3D ( 'NONE', #29, #17, #43 ) ;
#33 = ORIENTED_EDGE ( 'NONE', *, *, #2, .T. ) ;
#34 = VERTEX_POINT ( 'NONE', #8 ) ;
#35 = VERTEX_POINT ( 'NONE', #64 ) ;
#36 =( LENGTH_UNIT ( ) NAMED_UNIT ( * ) SI_UNIT ( .MILLI., .METRE. ) );
#37 = DIRECTION ( 'NONE',  ( 0.000000000000000000, 0.000000000000000000, 1.000000000000000000 ) ) ;
#38 = PRESENTATION_LAYER_ASSIGNMENT (  '', '', ( #69 ) ) ;
#39 = PRODUCT_DEFINITION_SHAPE ( 'NONE', 'NONE',  #54 ) ;
#40 = STYLED_ITEM ( 'NONE', ( #108 ), #48 ) ;
#41 = CARTESIAN_POINT ( 'NONE',  ( 14.00000000000000000, 1.714505518806294638E-15, 1000.000000000000000 ) ) ;
#42 = LINE ( 'NONE', #41, #133 ) ;
#43 = DIRECTION ( 'NONE',  ( 1.000000000000000000, 0.000000000000000000, 0.000000000000000000 ) ) ;
#44 = CARTESIAN_POINT ( 'NONE',  ( 0.000000000000000000, 0.000000000000000000, 1000.000000000000000 ) ) ;
#45 = PRODUCT_DEFINITION_CONTEXT ( 'detailed design', #98, 'design' ) ;
#46 = EDGE_CURVE ( 'NONE', #34, #35, #134, .T. ) ;
#47 =( NAMED_UNIT ( * ) SI_UNIT ( $, .STERADIAN. ) SOLID_ANGLE_UNIT ( ) );
#48 = ADVANCED_BREP_SHAPE_REPRESENTATION ( 'W28', ( #121, #97 ), #15 ) ;
#49 = AXIS2_PLACEMENT_3D ( 'NONE', #16, #63, #53 ) ;
#50 = DIRECTION ( 'NONE',  ( 1.000000000000000000, 0.000000000000000000, 0.000000000000000000 ) ) ;
#51 = PRODUCT ( 'W28', 'W28', '', ( #21 ) ) ;
#52 = COLOUR_RGB ( '',0.7921568627450980005, 0.8196078431372548767, 0.9333333333333333481 ) ;
#53 = DIRECTION ( 'NONE',  ( 1.000000000000000000, 0.000000000000000000, -0.000000000000000000 ) ) ;
#54 = PRODUCT_DEFINITION ( 'UNKNOWN', '', #95, #45 ) ;
#55 = DIRECTION ( 'NONE',  ( 1.000000000000000000, 0.000000000000000000, 0.000000000000000000 ) ) ;
#56 = VERTEX_POINT ( 'NONE', #137 ) ;
#57 = ADVANCED_FACE ( 'NONE', ( #114 ), #92, .F. ) ;
#58 = ORIENTED_EDGE ( 'NONE', *, *, #88, .T. ) ;
#59 = AXIS2_PLACEMENT_3D ( 'NONE', #82, #138, #91 ) ;
#60 = CARTESIAN_POINT ( 'NONE',  ( 0.000000000000000000, 0.000000000000000000, 1000.000000000000000 ) ) ;
#61 = DIRECTION ( 'NONE',  ( -0.000000000000000000, -0.000000000000000000, -1.000000000000000000 ) ) ;
#62 = UNCERTAINTY_MEASURE_WITH_UNIT (LENGTH_MEASURE( 1.000000000000000082E-05 ), #36, 'distance_accuracy_value', 'NONE');
#63 = DIRECTION ( 'NONE',  ( 0.000000000000000000, 0.000000000000000000, 1.000000000000000000 ) ) ;
#64 = CARTESIAN_POINT ( 'NONE',  ( 14.00000000000000000, 1.714505518806294638E-15, 1000.000000000000000 ) ) ;
#65 = EDGE_LOOP ( 'NONE', ( #93, #127, #18, #125 ) ) ;
#66 = SURFACE_STYLE_USAGE ( .BOTH. , #20 ) ;
#67 = LINE ( 'NONE', #111, #129 ) ;
#68 = ADVANCED_FACE ( 'NONE', ( #103 ), #7, .T. ) ;
#69 = STYLED_ITEM ( 'NONE', ( #81 ), #121 ) ;
#70 = FILL_AREA_STYLE_COLOUR ( '', #52 ) ;
#71 = PRODUCT_RELATED_PRODUCT_CATEGORY ( 'part', '', ( #51 ) ) ;
#72 = CARTESIAN_POINT ( 'NONE',  ( 14.00000000000000000, 1.714505518806294638E-15, 0.000000000000000000 ) ) ;
#73 = AXIS2_PLACEMENT_3D ( 'NONE', #124, #5, #136 ) ;
#74 = EDGE_LOOP ( 'NONE', ( #84, #94, #33, #19 ) ) ;
#75 = ORIENTED_EDGE ( 'NONE', *, *, #2, .F. ) ;
#76 = FILL_AREA_STYLE_COLOUR ( '', #109 ) ;
#77 = DIRECTION ( 'NONE',  ( 1.000000000000000000, 0.000000000000000000, 0.000000000000000000 ) ) ;
#78 =( NAMED_UNIT ( * ) PLANE_ANGLE_UNIT ( ) SI_UNIT ( $, .RADIAN. ) );
#79 = EDGE_CURVE ( 'NONE', #56, #10, #6, .T. ) ;
#80 = SURFACE_SIDE_STYLE ('',( #87 ) ) ;
#81 = PRESENTATION_STYLE_ASSIGNMENT (( #4 ) ) ;
#82 = CARTESIAN_POINT ( 'NONE',  ( 0.000000000000000000, 0.000000000000000000, 1000.000000000000000 ) ) ;
#83 = DIRECTION ( 'NONE',  ( 0.000000000000000000, 0.000000000000000000, 1.000000000000000000 ) ) ;
#84 = ORIENTED_EDGE ( 'NONE', *, *, #88, .F. ) ;
#85 = SHAPE_DEFINITION_REPRESENTATION ( #39, #48 ) ;
#86 =( GEOMETRIC_REPRESENTATION_CONTEXT ( 3 ) GLOBAL_UNCERTAINTY_ASSIGNED_CONTEXT ( ( #12 ) ) GLOBAL_UNIT_ASSIGNED_CONTEXT ( ( #27, #78, #132 ) ) REPRESENTATION_CONTEXT ( 'NONE', 'WORKASPACE' ) );
#87 = SURFACE_STYLE_FILL_AREA ( #113 ) ;
#88 = EDGE_CURVE ( 'NONE', #35, #34, #115, .T. ) ;
#89 = DIRECTION ( 'NONE',  ( 1.000000000000000000, 0.000000000000000000, 0.000000000000000000 ) ) ;
#90 = AXIS2_PLACEMENT_3D ( 'NONE', #60, #100, #123 ) ;
#91 = DIRECTION ( 'NONE',  ( 1.000000000000000000, 0.000000000000000000, -0.000000000000000000 ) ) ;
#92 = PLANE ( 'NONE',  #49 ) ;
#93 = ORIENTED_EDGE ( 'NONE', *, *, #117, .F. ) ;
#94 = ORIENTED_EDGE ( 'NONE', *, *, #117, .T. ) ;
#95 = PRODUCT_DEFINITION_FORMATION_WITH_SPECIFIED_SOURCE ( 'ANY', '', #51, .NOT_KNOWN. ) ;
#96 = UNCERTAINTY_MEASURE_WITH_UNIT (LENGTH_MEASURE( 1.000000000000000082E-05 ), #130, 'distance_accuracy_value', 'NONE');
#97 = AXIS2_PLACEMENT_3D ( 'NONE', #140, #37, #77 ) ;
#98 = APPLICATION_CONTEXT ( 'automotive_design' ) ;
#99 = ADVANCED_FACE ( 'NONE', ( #26 ), #13, .T. ) ;
#100 = DIRECTION ( 'NONE',  ( -0.000000000000000000, -0.000000000000000000, -1.000000000000000000 ) ) ;
#101 =( GEOMETRIC_REPRESENTATION_CONTEXT ( 3 ) GLOBAL_UNCERTAINTY_ASSIGNED_CONTEXT ( ( #62 ) ) GLOBAL_UNIT_ASSIGNED_CONTEXT ( ( #36, #11, #107 ) ) REPRESENTATION_CONTEXT ( 'NONE', 'WORKASPACE' ) );
#102 = AXIS2_PLACEMENT_3D ( 'NONE', #122, #135, #89 ) ;
#103 = FACE_OUTER_BOUND ( 'NONE', #65, .T. ) ;
#104 = FACE_OUTER_BOUND ( 'NONE', #105, .T. ) ;
#105 = EDGE_LOOP ( 'NONE', ( #106, #58 ) ) ;
#106 = ORIENTED_EDGE ( 'NONE', *, *, #46, .T. ) ;
#107 =( NAMED_UNIT ( * ) SI_UNIT ( $, .STERADIAN. ) SOLID_ANGLE_UNIT ( ) );
#108 = PRESENTATION_STYLE_ASSIGNMENT (( #66 ) ) ;
#109 = COLOUR_RGB ( '',0.7921568627450980005, 0.8196078431372548767, 0.9333333333333333481 ) ;
#110 = AXIS2_PLACEMENT_3D ( 'NONE', #44, #83, #55 ) ;
#111 = CARTESIAN_POINT ( 'NONE',  ( -14.00000000000000000, 0.000000000000000000, 1000.000000000000000 ) ) ;
#112 = MECHANICAL_DESIGN_GEOMETRIC_PRESENTATION_REPRESENTATION (  '', ( #69 ), #86 ) ;
#113 = FILL_AREA_STYLE ('',( #70 ) ) ;
#114 = FACE_OUTER_BOUND ( 'NONE', #139, .T. ) ;
#115 = CIRCLE ( 'NONE', #102, 14.00000000000000000 ) ;
#116 = CIRCLE ( 'NONE', #32, 14.00000000000000000 ) ;
#117 = EDGE_CURVE ( 'NONE', #35, #10, #42, .T. ) ;
#118 = SURFACE_STYLE_FILL_AREA ( #128 ) ;
#119 = APPLICATION_PROTOCOL_DEFINITION ( 'draft international standard', 'automotive_design', 1998, #131 ) ;
#120 = PRESENTATION_LAYER_ASSIGNMENT (  '', '', ( #40 ) ) ;
#121 = MANIFOLD_SOLID_BREP ( 'Boss-Extrude1', #3 ) ;
#122 = CARTESIAN_POINT ( 'NONE',  ( 0.000000000000000000, 0.000000000000000000, 1000.000000000000000 ) ) ;
#123 = DIRECTION ( 'NONE',  ( -1.000000000000000000, 0.000000000000000000, 0.000000000000000000 ) ) ;
#124 = CARTESIAN_POINT ( 'NONE',  ( 0.000000000000000000, 0.000000000000000000, 1000.000000000000000 ) ) ;
#125 = ORIENTED_EDGE ( 'NONE', *, *, #79, .T. ) ;
#126 = EDGE_CURVE ( 'NONE', #34, #56, #67, .T. ) ;
#127 = ORIENTED_EDGE ( 'NONE', *, *, #46, .F. ) ;
#128 = FILL_AREA_STYLE ('',( #76 ) ) ;
#129 = VECTOR ( 'NONE', #1, 1000.000000000000000 ) ;
#130 =( LENGTH_UNIT ( ) NAMED_UNIT ( * ) SI_UNIT ( .MILLI., .METRE. ) );
#131 = APPLICATION_CONTEXT ( 'automotive_design' ) ;
#132 =( NAMED_UNIT ( * ) SI_UNIT ( $, .STERADIAN. ) SOLID_ANGLE_UNIT ( ) );
#133 = VECTOR ( 'NONE', #61, 1000.000000000000000 ) ;
#134 = CIRCLE ( 'NONE', #110, 14.00000000000000000 ) ;
#135 = DIRECTION ( 'NONE',  ( 0.000000000000000000, 0.000000000000000000, 1.000000000000000000 ) ) ;
#136 = DIRECTION ( 'NONE',  ( -1.000000000000000000, 0.000000000000000000, 0.000000000000000000 ) ) ;
#137 = CARTESIAN_POINT ( 'NONE',  ( -14.00000000000000000, 0.000000000000000000, 0.000000000000000000 ) ) ;
#138 = DIRECTION ( 'NONE',  ( 0.000000000000000000, 0.000000000000000000, 1.000000000000000000 ) ) ;
#139 = EDGE_LOOP ( 'NONE', ( #9, #75 ) ) ;
#140 = CARTESIAN_POINT ( 'NONE',  ( 0.000000000000000000, 0.000000000000000000, 0.000000000000000000 ) ) ;
ENDSEC;
END-ISO-10303-21;
