ISO-10303-21;
HEADER;
FILE_DESCRIPTION (( 'STEP AP214' ),
    '1' );
FILE_NAME ('W16.STEP',
    '2021-12-29T07:52:01',
    ( '' ),
    ( '' ),
    'SwSTEP 2.0',
    'SolidWorks 2020',
    '' );
FILE_SCHEMA (( 'AUTOMOTIVE_DESIGN' ));
ENDSEC;

DATA;
#1 = AXIS2_PLACEMENT_3D ( 'NONE', #40, #154, #159 ) ;
#2 = AXIS2_PLACEMENT_3D ( 'NONE', #28, #70, #72 ) ;
#3 = MANIFOLD_SOLID_BREP ( 'Boss-Extrude1', #199 ) ;
#4 =( NAMED_UNIT ( * ) PLANE_ANGLE_UNIT ( ) SI_UNIT ( $, .RADIAN. ) );
#5 = PRESENTATION_STYLE_ASSIGNMENT (( #150 ) ) ;
#6 = DIRECTION ( 'NONE',  ( 0.000000000000000000, 0.000000000000000000, 1.000000000000000000 ) ) ;
#7 = FILL_AREA_STYLE_COLOUR ( '', #149 ) ;
#8 = FILL_AREA_STYLE ('',( #23 ) ) ;
#9 = PRESENTATION_LAYER_ASSIGNMENT (  '', '', ( #187 ) ) ;
#10 = ORIENTED_EDGE ( 'NONE', *, *, #131, .T. ) ;
#11 = FACE_OUTER_BOUND ( 'NONE', #192, .T. ) ;
#12 = DIRECTION ( 'NONE',  ( 0.000000000000000000, 0.000000000000000000, 1.000000000000000000 ) ) ;
#13 =( NAMED_UNIT ( * ) SI_UNIT ( $, .STERADIAN. ) SOLID_ANGLE_UNIT ( ) );
#14 = FILL_AREA_STYLE ('',( #125 ) ) ;
#15 = CIRCLE ( 'NONE', #171, 8.000000000000000000 ) ;
#16 = AXIS2_PLACEMENT_3D ( 'NONE', #133, #6, #177 ) ;
#17 = ADVANCED_FACE ( 'NONE', ( #139 ), #97, .T. ) ;
#18 = ADVANCED_BREP_SHAPE_REPRESENTATION ( 'W16', ( #3, #1 ), #137 ) ;
#19 = MECHANICAL_DESIGN_GEOMETRIC_PRESENTATION_REPRESENTATION (  '', ( #53 ), #155 ) ;
#20 =( LENGTH_UNIT ( ) NAMED_UNIT ( * ) SI_UNIT ( .MILLI., .METRE. ) );
#21 = SURFACE_STYLE_USAGE ( .BOTH. , #153 ) ;
#22 = ORIENTED_EDGE ( 'NONE', *, *, #166, .F. ) ;
#23 = FILL_AREA_STYLE_COLOUR ( '', #152 ) ;
#24 = ORIENTED_EDGE ( 'NONE', *, *, #67, .T. ) ;
#25 = UNCERTAINTY_MEASURE_WITH_UNIT (LENGTH_MEASURE( 1.000000000000000082E-05 ), #145, 'distance_accuracy_value', 'NONE');
#26 = VERTEX_POINT ( 'NONE', #36 ) ;
#27 = STYLED_ITEM ( 'NONE', ( #5 ), #17 ) ;
#28 = CARTESIAN_POINT ( 'NONE',  ( 0.000000000000000000, 0.000000000000000000, 0.000000000000000000 ) ) ;
#29 = SURFACE_STYLE_USAGE ( .BOTH. , #143 ) ;
#30 = DIRECTION ( 'NONE',  ( 1.000000000000000000, 0.000000000000000000, 0.000000000000000000 ) ) ;
#31 = PRESENTATION_STYLE_ASSIGNMENT (( #180 ) ) ;
#32 = DIRECTION ( 'NONE',  ( 0.000000000000000000, 0.000000000000000000, 1.000000000000000000 ) ) ;
#33 = PRODUCT_DEFINITION_SHAPE ( 'NONE', 'NONE',  #45 ) ;
#34 = COLOUR_RGB ( '',0.8980392156862745390, 0.8980392156862745390, 0.8980392156862745390 ) ;
#35 =( GEOMETRIC_REPRESENTATION_CONTEXT ( 3 ) GLOBAL_UNCERTAINTY_ASSIGNED_CONTEXT ( ( #90 ) ) GLOBAL_UNIT_ASSIGNED_CONTEXT ( ( #47, #104, #132 ) ) REPRESENTATION_CONTEXT ( 'NONE', 'WORKASPACE' ) );
#36 = CARTESIAN_POINT ( 'NONE',  ( 8.000000000000000000, 9.797174393178825657E-16, 1000.000000000000000 ) ) ;
#37 = DIRECTION ( 'NONE',  ( -1.000000000000000000, 0.000000000000000000, 0.000000000000000000 ) ) ;
#38 = UNCERTAINTY_MEASURE_WITH_UNIT (LENGTH_MEASURE( 1.000000000000000082E-05 ), #169, 'distance_accuracy_value', 'NONE');
#39 = ORIENTED_EDGE ( 'NONE', *, *, #110, .T. ) ;
#40 = CARTESIAN_POINT ( 'NONE',  ( 0.000000000000000000, 0.000000000000000000, 0.000000000000000000 ) ) ;
#41 = AXIS2_PLACEMENT_3D ( 'NONE', #184, #107, #178 ) ;
#42 = FILL_AREA_STYLE_COLOUR ( '', #119 ) ;
#43 = CARTESIAN_POINT ( 'NONE',  ( 0.000000000000000000, 0.000000000000000000, 1000.000000000000000 ) ) ;
#44 = LINE ( 'NONE', #106, #69 ) ;
#45 = PRODUCT_DEFINITION ( 'UNKNOWN', '', #144, #122 ) ;
#46 =( NAMED_UNIT ( * ) PLANE_ANGLE_UNIT ( ) SI_UNIT ( $, .RADIAN. ) );
#47 =( LENGTH_UNIT ( ) NAMED_UNIT ( * ) SI_UNIT ( .MILLI., .METRE. ) );
#48 = DIRECTION ( 'NONE',  ( -0.000000000000000000, -0.000000000000000000, -1.000000000000000000 ) ) ;
#49 =( NAMED_UNIT ( * ) SI_UNIT ( $, .STERADIAN. ) SOLID_ANGLE_UNIT ( ) );
#50 =( GEOMETRIC_REPRESENTATION_CONTEXT ( 3 ) GLOBAL_UNCERTAINTY_ASSIGNED_CONTEXT ( ( #25 ) ) GLOBAL_UNIT_ASSIGNED_CONTEXT ( ( #145, #91, #13 ) ) REPRESENTATION_CONTEXT ( 'NONE', 'WORKASPACE' ) );
#51 = FACE_OUTER_BOUND ( 'NONE', #65, .T. ) ;
#52 = ORIENTED_EDGE ( 'NONE', *, *, #131, .F. ) ;
#53 = STYLED_ITEM ( 'NONE', ( #31 ), #112 ) ;
#54 = ORIENTED_EDGE ( 'NONE', *, *, #126, .F. ) ;
#55 = LINE ( 'NONE', #120, #101 ) ;
#56 = PLANE ( 'NONE',  #41 ) ;
#57 = FILL_AREA_STYLE_COLOUR ( '', #71 ) ;
#58 = FILL_AREA_STYLE ('',( #42 ) ) ;
#59 = COLOUR_RGB ( '',0.8980392156862745390, 0.8980392156862745390, 0.8980392156862745390 ) ;
#60 = PRODUCT ( 'W16', 'W16', '', ( #83 ) ) ;
#61 =( NAMED_UNIT ( * ) PLANE_ANGLE_UNIT ( ) SI_UNIT ( $, .RADIAN. ) );
#62 = AXIS2_PLACEMENT_3D ( 'NONE', #121, #198, #161 ) ;
#63 = ADVANCED_FACE ( 'NONE', ( #51 ), #135, .T. ) ;
#64 = CARTESIAN_POINT ( 'NONE',  ( -8.000000000000000000, 0.000000000000000000, 0.000000000000000000 ) ) ;
#65 = EDGE_LOOP ( 'NONE', ( #100, #10 ) ) ;
#66 = SHAPE_DEFINITION_REPRESENTATION ( #33, #18 ) ;
#67 = EDGE_CURVE ( 'NONE', #193, #87, #176, .T. ) ;
#68 = ORIENTED_EDGE ( 'NONE', *, *, #173, .F. ) ;
#69 = VECTOR ( 'NONE', #165, 1000.000000000000000 ) ;
#70 = DIRECTION ( 'NONE',  ( 0.000000000000000000, 0.000000000000000000, 1.000000000000000000 ) ) ;
#71 = COLOUR_RGB ( '',0.8980392156862745390, 0.8980392156862745390, 0.8980392156862745390 ) ;
#72 = DIRECTION ( 'NONE',  ( 1.000000000000000000, 0.000000000000000000, 0.000000000000000000 ) ) ;
#73 = CIRCLE ( 'NONE', #2, 8.000000000000000000 ) ;
#74 =( LENGTH_UNIT ( ) NAMED_UNIT ( * ) SI_UNIT ( .MILLI., .METRE. ) );
#75 = SURFACE_STYLE_FILL_AREA ( #14 ) ;
#76 = PRESENTATION_LAYER_ASSIGNMENT (  '', '', ( #183 ) ) ;
#77 = UNCERTAINTY_MEASURE_WITH_UNIT (LENGTH_MEASURE( 1.000000000000000082E-05 ), #95, 'distance_accuracy_value', 'NONE');
#78 = SURFACE_STYLE_FILL_AREA ( #181 ) ;
#79 = SURFACE_STYLE_USAGE ( .BOTH. , #85 ) ;
#80 = FILL_AREA_STYLE ('',( #127 ) ) ;
#81 = SURFACE_STYLE_FILL_AREA ( #8 ) ;
#82 = FILL_AREA_STYLE ('',( #7 ) ) ;
#83 = PRODUCT_CONTEXT ( 'NONE', #109, 'mechanical' ) ;
#84 = VERTEX_POINT ( 'NONE', #142 ) ;
#85 = SURFACE_SIDE_STYLE ('',( #81 ) ) ;
#86 = MECHANICAL_DESIGN_GEOMETRIC_PRESENTATION_REPRESENTATION (  '', ( #190 ), #50 ) ;
#87 = VERTEX_POINT ( 'NONE', #92 ) ;
#88 =( NAMED_UNIT ( * ) PLANE_ANGLE_UNIT ( ) SI_UNIT ( $, .RADIAN. ) );
#89 = STYLED_ITEM ( 'NONE', ( #175 ), #18 ) ;
#90 = UNCERTAINTY_MEASURE_WITH_UNIT (LENGTH_MEASURE( 1.000000000000000082E-05 ), #47, 'distance_accuracy_value', 'NONE');
#91 =( NAMED_UNIT ( * ) PLANE_ANGLE_UNIT ( ) SI_UNIT ( $, .RADIAN. ) );
#92 = CARTESIAN_POINT ( 'NONE',  ( 8.000000000000000000, 9.797174393178825657E-16, 0.000000000000000000 ) ) ;
#93 = PRESENTATION_STYLE_ASSIGNMENT (( #185 ) ) ;
#94 = UNCERTAINTY_MEASURE_WITH_UNIT (LENGTH_MEASURE( 1.000000000000000082E-05 ), #20, 'distance_accuracy_value', 'NONE');
#95 =( LENGTH_UNIT ( ) NAMED_UNIT ( * ) SI_UNIT ( .MILLI., .METRE. ) );
#96 = MECHANICAL_DESIGN_GEOMETRIC_PRESENTATION_REPRESENTATION (  '', ( #183 ), #35 ) ;
#97 = CYLINDRICAL_SURFACE ( 'NONE', #182, 8.000000000000000000 ) ;
#98 = ORIENTED_EDGE ( 'NONE', *, *, #173, .T. ) ;
#99 = DIRECTION ( 'NONE',  ( -0.000000000000000000, -0.000000000000000000, -1.000000000000000000 ) ) ;
#100 = ORIENTED_EDGE ( 'NONE', *, *, #166, .T. ) ;
#101 = VECTOR ( 'NONE', #99, 1000.000000000000000 ) ;
#102 = SURFACE_STYLE_FILL_AREA ( #80 ) ;
#103 =( LENGTH_UNIT ( ) NAMED_UNIT ( * ) SI_UNIT ( .MILLI., .METRE. ) );
#104 =( NAMED_UNIT ( * ) PLANE_ANGLE_UNIT ( ) SI_UNIT ( $, .RADIAN. ) );
#105 = UNCERTAINTY_MEASURE_WITH_UNIT (LENGTH_MEASURE( 1.000000000000000082E-05 ), #74, 'distance_accuracy_value', 'NONE');
#106 = CARTESIAN_POINT ( 'NONE',  ( 8.000000000000000000, 9.797174393178825657E-16, 1000.000000000000000 ) ) ;
#107 = DIRECTION ( 'NONE',  ( 0.000000000000000000, 0.000000000000000000, 1.000000000000000000 ) ) ;
#108 = CARTESIAN_POINT ( 'NONE',  ( 0.000000000000000000, 0.000000000000000000, 1000.000000000000000 ) ) ;
#109 = APPLICATION_CONTEXT ( 'automotive_design' ) ;
#110 = EDGE_CURVE ( 'NONE', #87, #193, #73, .T. ) ;
#111 = SURFACE_SIDE_STYLE ('',( #78 ) ) ;
#112 = ADVANCED_FACE ( 'NONE', ( #11 ), #56, .F. ) ;
#113 = ORIENTED_EDGE ( 'NONE', *, *, #126, .T. ) ;
#114 = ORIENTED_EDGE ( 'NONE', *, *, #67, .F. ) ;
#115 = PRESENTATION_LAYER_ASSIGNMENT (  '', '', ( #89 ) ) ;
#116 =( NAMED_UNIT ( * ) SI_UNIT ( $, .STERADIAN. ) SOLID_ANGLE_UNIT ( ) );
#117 = APPLICATION_CONTEXT ( 'automotive_design' ) ;
#118 = SURFACE_STYLE_FILL_AREA ( #82 ) ;
#119 = COLOUR_RGB ( '',0.8980392156862745390, 0.8980392156862745390, 0.8980392156862745390 ) ;
#120 = CARTESIAN_POINT ( 'NONE',  ( -8.000000000000000000, 0.000000000000000000, 1000.000000000000000 ) ) ;
#121 = CARTESIAN_POINT ( 'NONE',  ( 0.000000000000000000, 0.000000000000000000, 0.000000000000000000 ) ) ;
#122 = PRODUCT_DEFINITION_CONTEXT ( 'detailed design', #117, 'design' ) ;
#123 =( NAMED_UNIT ( * ) SI_UNIT ( $, .STERADIAN. ) SOLID_ANGLE_UNIT ( ) );
#124 = CIRCLE ( 'NONE', #16, 8.000000000000000000 ) ;
#125 = FILL_AREA_STYLE_COLOUR ( '', #34 ) ;
#126 = EDGE_CURVE ( 'NONE', #26, #87, #44, .T. ) ;
#127 = FILL_AREA_STYLE_COLOUR ( '', #59 ) ;
#128 =( NAMED_UNIT ( * ) SI_UNIT ( $, .STERADIAN. ) SOLID_ANGLE_UNIT ( ) );
#129 = PRESENTATION_LAYER_ASSIGNMENT (  '', '', ( #190 ) ) ;
#130 = ORIENTED_EDGE ( 'NONE', *, *, #110, .F. ) ;
#131 = EDGE_CURVE ( 'NONE', #26, #84, #15, .T. ) ;
#132 =( NAMED_UNIT ( * ) SI_UNIT ( $, .STERADIAN. ) SOLID_ANGLE_UNIT ( ) );
#133 = CARTESIAN_POINT ( 'NONE',  ( 0.000000000000000000, 0.000000000000000000, 1000.000000000000000 ) ) ;
#134 =( GEOMETRIC_REPRESENTATION_CONTEXT ( 3 ) GLOBAL_UNCERTAINTY_ASSIGNED_CONTEXT ( ( #94 ) ) GLOBAL_UNIT_ASSIGNED_CONTEXT ( ( #20, #168, #189 ) ) REPRESENTATION_CONTEXT ( 'NONE', 'WORKASPACE' ) );
#135 = PLANE ( 'NONE',  #156 ) ;
#136 = PRESENTATION_STYLE_ASSIGNMENT (( #29 ) ) ;
#137 =( GEOMETRIC_REPRESENTATION_CONTEXT ( 3 ) GLOBAL_UNCERTAINTY_ASSIGNED_CONTEXT ( ( #148 ) ) GLOBAL_UNIT_ASSIGNED_CONTEXT ( ( #103, #88, #116 ) ) REPRESENTATION_CONTEXT ( 'NONE', 'WORKASPACE' ) );
#138 = EDGE_LOOP ( 'NONE', ( #52, #113, #39, #68 ) ) ;
#139 = FACE_OUTER_BOUND ( 'NONE', #151, .T. ) ;
#140 = ADVANCED_FACE ( 'NONE', ( #197 ), #194, .T. ) ;
#141 = DIRECTION ( 'NONE',  ( -0.000000000000000000, -0.000000000000000000, -1.000000000000000000 ) ) ;
#142 = CARTESIAN_POINT ( 'NONE',  ( -8.000000000000000000, 0.000000000000000000, 1000.000000000000000 ) ) ;
#143 = SURFACE_SIDE_STYLE ('',( #75 ) ) ;
#144 = PRODUCT_DEFINITION_FORMATION_WITH_SPECIFIED_SOURCE ( 'ANY', '', #60, .NOT_KNOWN. ) ;
#145 =( LENGTH_UNIT ( ) NAMED_UNIT ( * ) SI_UNIT ( .MILLI., .METRE. ) );
#146 = PRODUCT_RELATED_PRODUCT_CATEGORY ( 'part', '', ( #60 ) ) ;
#147 = MECHANICAL_DESIGN_GEOMETRIC_PRESENTATION_REPRESENTATION (  '', ( #187 ), #162 ) ;
#148 = UNCERTAINTY_MEASURE_WITH_UNIT (LENGTH_MEASURE( 1.000000000000000082E-05 ), #103, 'distance_accuracy_value', 'NONE');
#149 = COLOUR_RGB ( '',0.7921568627450980005, 0.8196078431372548767, 0.9333333333333333481 ) ;
#150 = SURFACE_STYLE_USAGE ( .BOTH. , #158 ) ;
#151 = EDGE_LOOP ( 'NONE', ( #54, #22, #98, #24 ) ) ;
#152 = COLOUR_RGB ( '',0.7921568627450980005, 0.8196078431372548767, 0.9333333333333333481 ) ;
#153 = SURFACE_SIDE_STYLE ('',( #118 ) ) ;
#154 = DIRECTION ( 'NONE',  ( 0.000000000000000000, 0.000000000000000000, 1.000000000000000000 ) ) ;
#155 =( GEOMETRIC_REPRESENTATION_CONTEXT ( 3 ) GLOBAL_UNCERTAINTY_ASSIGNED_CONTEXT ( ( #105 ) ) GLOBAL_UNIT_ASSIGNED_CONTEXT ( ( #74, #61, #123 ) ) REPRESENTATION_CONTEXT ( 'NONE', 'WORKASPACE' ) );
#156 = AXIS2_PLACEMENT_3D ( 'NONE', #108, #12, #164 ) ;
#157 = APPLICATION_PROTOCOL_DEFINITION ( 'draft international standard', 'automotive_design', 1998, #117 ) ;
#158 = SURFACE_SIDE_STYLE ('',( #102 ) ) ;
#159 = DIRECTION ( 'NONE',  ( 1.000000000000000000, 0.000000000000000000, 0.000000000000000000 ) ) ;
#160 = PRESENTATION_LAYER_ASSIGNMENT (  '', '', ( #27 ) ) ;
#161 = DIRECTION ( 'NONE',  ( 1.000000000000000000, 0.000000000000000000, 0.000000000000000000 ) ) ;
#162 =( GEOMETRIC_REPRESENTATION_CONTEXT ( 3 ) GLOBAL_UNCERTAINTY_ASSIGNED_CONTEXT ( ( #77 ) ) GLOBAL_UNIT_ASSIGNED_CONTEXT ( ( #95, #46, #49 ) ) REPRESENTATION_CONTEXT ( 'NONE', 'WORKASPACE' ) );
#163 = CARTESIAN_POINT ( 'NONE',  ( 0.000000000000000000, 0.000000000000000000, 1000.000000000000000 ) ) ;
#164 = DIRECTION ( 'NONE',  ( 1.000000000000000000, 0.000000000000000000, -0.000000000000000000 ) ) ;
#165 = DIRECTION ( 'NONE',  ( -0.000000000000000000, -0.000000000000000000, -1.000000000000000000 ) ) ;
#166 = EDGE_CURVE ( 'NONE', #84, #26, #124, .T. ) ;
#167 = MECHANICAL_DESIGN_GEOMETRIC_PRESENTATION_REPRESENTATION (  '', ( #27 ), #134 ) ;
#168 =( NAMED_UNIT ( * ) PLANE_ANGLE_UNIT ( ) SI_UNIT ( $, .RADIAN. ) );
#169 =( LENGTH_UNIT ( ) NAMED_UNIT ( * ) SI_UNIT ( .MILLI., .METRE. ) );
#170 = DIRECTION ( 'NONE',  ( -1.000000000000000000, 0.000000000000000000, 0.000000000000000000 ) ) ;
#171 = AXIS2_PLACEMENT_3D ( 'NONE', #163, #32, #30 ) ;
#172 = APPLICATION_PROTOCOL_DEFINITION ( 'draft international standard', 'automotive_design', 1998, #109 ) ;
#173 = EDGE_CURVE ( 'NONE', #84, #193, #55, .T. ) ;
#174 = PRESENTATION_STYLE_ASSIGNMENT (( #21 ) ) ;
#175 = PRESENTATION_STYLE_ASSIGNMENT (( #79 ) ) ;
#176 = CIRCLE ( 'NONE', #62, 8.000000000000000000 ) ;
#177 = DIRECTION ( 'NONE',  ( 1.000000000000000000, 0.000000000000000000, 0.000000000000000000 ) ) ;
#178 = DIRECTION ( 'NONE',  ( 1.000000000000000000, 0.000000000000000000, -0.000000000000000000 ) ) ;
#179 =( GEOMETRIC_REPRESENTATION_CONTEXT ( 3 ) GLOBAL_UNCERTAINTY_ASSIGNED_CONTEXT ( ( #38 ) ) GLOBAL_UNIT_ASSIGNED_CONTEXT ( ( #169, #4, #128 ) ) REPRESENTATION_CONTEXT ( 'NONE', 'WORKASPACE' ) );
#180 = SURFACE_STYLE_USAGE ( .BOTH. , #200 ) ;
#181 = FILL_AREA_STYLE ('',( #57 ) ) ;
#182 = AXIS2_PLACEMENT_3D ( 'NONE', #188, #48, #170 ) ;
#183 = STYLED_ITEM ( 'NONE', ( #174 ), #3 ) ;
#184 = CARTESIAN_POINT ( 'NONE',  ( 0.000000000000000000, 0.000000000000000000, 0.000000000000000000 ) ) ;
#185 = SURFACE_STYLE_USAGE ( .BOTH. , #111 ) ;
#186 = AXIS2_PLACEMENT_3D ( 'NONE', #43, #141, #37 ) ;
#187 = STYLED_ITEM ( 'NONE', ( #93 ), #140 ) ;
#188 = CARTESIAN_POINT ( 'NONE',  ( 0.000000000000000000, 0.000000000000000000, 1000.000000000000000 ) ) ;
#189 =( NAMED_UNIT ( * ) SI_UNIT ( $, .STERADIAN. ) SOLID_ANGLE_UNIT ( ) );
#190 = STYLED_ITEM ( 'NONE', ( #136 ), #63 ) ;
#191 = PRESENTATION_LAYER_ASSIGNMENT (  '', '', ( #53 ) ) ;
#192 = EDGE_LOOP ( 'NONE', ( #114, #130 ) ) ;
#193 = VERTEX_POINT ( 'NONE', #64 ) ;
#194 = CYLINDRICAL_SURFACE ( 'NONE', #186, 8.000000000000000000 ) ;
#195 = SURFACE_STYLE_FILL_AREA ( #58 ) ;
#196 = MECHANICAL_DESIGN_GEOMETRIC_PRESENTATION_REPRESENTATION (  '', ( #89 ), #179 ) ;
#197 = FACE_OUTER_BOUND ( 'NONE', #138, .T. ) ;
#198 = DIRECTION ( 'NONE',  ( 0.000000000000000000, 0.000000000000000000, 1.000000000000000000 ) ) ;
#199 = CLOSED_SHELL ( 'NONE', ( #140, #17, #63, #112 ) ) ;
#200 = SURFACE_SIDE_STYLE ('',( #195 ) ) ;
ENDSEC;
END-ISO-10303-21;
