ISO-10303-21;
HEADER;
FILE_DESCRIPTION (( 'STEP AP214' ),
    '1' );
FILE_NAME ('W20.STEP',
    '2021-12-29T08:07:54',
    ( '' ),
    ( '' ),
    'SwSTEP 2.0',
    'SolidWorks 2020',
    '' );
FILE_SCHEMA (( 'AUTOMOTIVE_DESIGN' ));
ENDSEC;

DATA;
#1 = CYLINDRICAL_SURFACE ( 'NONE', #4, 10.00000000000000000 ) ;
#2 = STYLED_ITEM ( 'NONE', ( #172 ), #57 ) ;
#3 =( NAMED_UNIT ( * ) PLANE_ANGLE_UNIT ( ) SI_UNIT ( $, .RADIAN. ) );
#4 = AXIS2_PLACEMENT_3D ( 'NONE', #145, #189, #24 ) ;
#5 = SURFACE_STYLE_FILL_AREA ( #123 ) ;
#6 = SURFACE_SIDE_STYLE ('',( #80 ) ) ;
#7 =( LENGTH_UNIT ( ) NAMED_UNIT ( * ) SI_UNIT ( .MILLI., .METRE. ) );
#8 = APPLICATION_PROTOCOL_DEFINITION ( 'draft international standard', 'automotive_design', 1998, #45 ) ;
#9 = PRODUCT_DEFINITION ( 'UNKNOWN', '', #47, #184 ) ;
#10 = UNCERTAINTY_MEASURE_WITH_UNIT (LENGTH_MEASURE( 1.000000000000000082E-05 ), #55, 'distance_accuracy_value', 'NONE');
#11 = CYLINDRICAL_SURFACE ( 'NONE', #95, 10.00000000000000000 ) ;
#12 = FACE_OUTER_BOUND ( 'NONE', #29, .T. ) ;
#13 = AXIS2_PLACEMENT_3D ( 'NONE', #121, #176, #74 ) ;
#14 = FILL_AREA_STYLE_COLOUR ( '', #173 ) ;
#15 = DIRECTION ( 'NONE',  ( 1.000000000000000000, 0.000000000000000000, 0.000000000000000000 ) ) ;
#16 = STYLED_ITEM ( 'NONE', ( #20 ), #163 ) ;
#17 = SURFACE_STYLE_FILL_AREA ( #102 ) ;
#18 = UNCERTAINTY_MEASURE_WITH_UNIT (LENGTH_MEASURE( 1.000000000000000082E-05 ), #157, 'distance_accuracy_value', 'NONE');
#19 = LINE ( 'NONE', #100, #46 ) ;
#20 = PRESENTATION_STYLE_ASSIGNMENT (( #118 ) ) ;
#21 = UNCERTAINTY_MEASURE_WITH_UNIT (LENGTH_MEASURE( 1.000000000000000082E-05 ), #7, 'distance_accuracy_value', 'NONE');
#22 =( GEOMETRIC_REPRESENTATION_CONTEXT ( 3 ) GLOBAL_UNCERTAINTY_ASSIGNED_CONTEXT ( ( #107 ) ) GLOBAL_UNIT_ASSIGNED_CONTEXT ( ( #120, #70, #146 ) ) REPRESENTATION_CONTEXT ( 'NONE', 'WORKASPACE' ) );
#23 = MECHANICAL_DESIGN_GEOMETRIC_PRESENTATION_REPRESENTATION (  '', ( #130 ), #53 ) ;
#24 = DIRECTION ( 'NONE',  ( -1.000000000000000000, 0.000000000000000000, 0.000000000000000000 ) ) ;
#25 =( NAMED_UNIT ( * ) PLANE_ANGLE_UNIT ( ) SI_UNIT ( $, .RADIAN. ) );
#26 = ORIENTED_EDGE ( 'NONE', *, *, #83, .T. ) ;
#27 = AXIS2_PLACEMENT_3D ( 'NONE', #195, #51, #141 ) ;
#28 = UNCERTAINTY_MEASURE_WITH_UNIT (LENGTH_MEASURE( 1.000000000000000082E-05 ), #63, 'distance_accuracy_value', 'NONE');
#29 = EDGE_LOOP ( 'NONE', ( #61, #179, #93, #165 ) ) ;
#30 = ORIENTED_EDGE ( 'NONE', *, *, #75, .F. ) ;
#31 = ADVANCED_BREP_SHAPE_REPRESENTATION ( 'W20', ( #38, #178 ), #116 ) ;
#32 = CARTESIAN_POINT ( 'NONE',  ( 0.000000000000000000, 0.000000000000000000, 1000.000000000000000 ) ) ;
#33 = COLOUR_RGB ( '',0.8980392156862745390, 0.8980392156862745390, 0.8980392156862745390 ) ;
#34 = COLOUR_RGB ( '',0.6470588235294117974, 0.6196078431372549211, 0.5882352941176470784 ) ;
#35 = APPLICATION_CONTEXT ( 'automotive_design' ) ;
#36 = PRODUCT_RELATED_PRODUCT_CATEGORY ( 'part', '', ( #191 ) ) ;
#37 = FILL_AREA_STYLE_COLOUR ( '', #168 ) ;
#38 = MANIFOLD_SOLID_BREP ( 'Boss-Extrude1', #155 ) ;
#39 = DIRECTION ( 'NONE',  ( -0.000000000000000000, -0.000000000000000000, -1.000000000000000000 ) ) ;
#40 =( GEOMETRIC_REPRESENTATION_CONTEXT ( 3 ) GLOBAL_UNCERTAINTY_ASSIGNED_CONTEXT ( ( #21 ) ) GLOBAL_UNIT_ASSIGNED_CONTEXT ( ( #7, #97, #197 ) ) REPRESENTATION_CONTEXT ( 'NONE', 'WORKASPACE' ) );
#41 = DIRECTION ( 'NONE',  ( 0.000000000000000000, 0.000000000000000000, 1.000000000000000000 ) ) ;
#42 =( NAMED_UNIT ( * ) SI_UNIT ( $, .STERADIAN. ) SOLID_ANGLE_UNIT ( ) );
#43 = EDGE_LOOP ( 'NONE', ( #48, #167 ) ) ;
#44 = EDGE_LOOP ( 'NONE', ( #30, #151, #26, #192 ) ) ;
#45 = APPLICATION_CONTEXT ( 'automotive_design' ) ;
#46 = VECTOR ( 'NONE', #39, 1000.000000000000000 ) ;
#47 = PRODUCT_DEFINITION_FORMATION_WITH_SPECIFIED_SOURCE ( 'ANY', '', #191, .NOT_KNOWN. ) ;
#48 = ORIENTED_EDGE ( 'NONE', *, *, #196, .F. ) ;
#49 = ORIENTED_EDGE ( 'NONE', *, *, #75, .T. ) ;
#50 = VERTEX_POINT ( 'NONE', #169 ) ;
#51 = DIRECTION ( 'NONE',  ( 0.000000000000000000, 0.000000000000000000, 1.000000000000000000 ) ) ;
#52 = AXIS2_PLACEMENT_3D ( 'NONE', #104, #174, #159 ) ;
#53 =( GEOMETRIC_REPRESENTATION_CONTEXT ( 3 ) GLOBAL_UNCERTAINTY_ASSIGNED_CONTEXT ( ( #28 ) ) GLOBAL_UNIT_ASSIGNED_CONTEXT ( ( #63, #3, #94 ) ) REPRESENTATION_CONTEXT ( 'NONE', 'WORKASPACE' ) );
#54 = SURFACE_SIDE_STYLE ('',( #187 ) ) ;
#55 =( LENGTH_UNIT ( ) NAMED_UNIT ( * ) SI_UNIT ( .MILLI., .METRE. ) );
#56 = PRESENTATION_LAYER_ASSIGNMENT (  '', '', ( #105 ) ) ;
#57 = ADVANCED_FACE ( 'NONE', ( #12 ), #11, .T. ) ;
#58 = FILL_AREA_STYLE_COLOUR ( '', #114 ) ;
#59 = AXIS2_PLACEMENT_3D ( 'NONE', #131, #41, #15 ) ;
#60 = SHAPE_DEFINITION_REPRESENTATION ( #149, #31 ) ;
#61 = ORIENTED_EDGE ( 'NONE', *, *, #91, .F. ) ;
#62 = SURFACE_STYLE_USAGE ( .BOTH. , #6 ) ;
#63 =( LENGTH_UNIT ( ) NAMED_UNIT ( * ) SI_UNIT ( .MILLI., .METRE. ) );
#64 = DIRECTION ( 'NONE',  ( 1.000000000000000000, 0.000000000000000000, 0.000000000000000000 ) ) ;
#65 = UNCERTAINTY_MEASURE_WITH_UNIT (LENGTH_MEASURE( 1.000000000000000082E-05 ), #175, 'distance_accuracy_value', 'NONE');
#66 =( NAMED_UNIT ( * ) SI_UNIT ( $, .STERADIAN. ) SOLID_ANGLE_UNIT ( ) );
#67 = PLANE ( 'NONE',  #13 ) ;
#68 = FACE_OUTER_BOUND ( 'NONE', #182, .T. ) ;
#69 = PRESENTATION_STYLE_ASSIGNMENT (( #90 ) ) ;
#70 =( NAMED_UNIT ( * ) PLANE_ANGLE_UNIT ( ) SI_UNIT ( $, .RADIAN. ) );
#71 = CARTESIAN_POINT ( 'NONE',  ( -10.00000000000000000, 0.000000000000000000, 0.000000000000000000 ) ) ;
#72 = PRESENTATION_LAYER_ASSIGNMENT (  '', '', ( #16 ) ) ;
#73 = SURFACE_SIDE_STYLE ('',( #133 ) ) ;
#74 = DIRECTION ( 'NONE',  ( 1.000000000000000000, 0.000000000000000000, -0.000000000000000000 ) ) ;
#75 = EDGE_CURVE ( 'NONE', #180, #148, #84, .T. ) ;
#76 =( GEOMETRIC_REPRESENTATION_CONTEXT ( 3 ) GLOBAL_UNCERTAINTY_ASSIGNED_CONTEXT ( ( #65 ) ) GLOBAL_UNIT_ASSIGNED_CONTEXT ( ( #175, #158, #103 ) ) REPRESENTATION_CONTEXT ( 'NONE', 'WORKASPACE' ) );
#77 = FILL_AREA_STYLE ('',( #138 ) ) ;
#78 = DIRECTION ( 'NONE',  ( 0.000000000000000000, 0.000000000000000000, 1.000000000000000000 ) ) ;
#79 = PRESENTATION_LAYER_ASSIGNMENT (  '', '', ( #162 ) ) ;
#80 = SURFACE_STYLE_FILL_AREA ( #77 ) ;
#81 =( LENGTH_UNIT ( ) NAMED_UNIT ( * ) SI_UNIT ( .MILLI., .METRE. ) );
#82 =( NAMED_UNIT ( * ) PLANE_ANGLE_UNIT ( ) SI_UNIT ( $, .RADIAN. ) );
#83 = EDGE_CURVE ( 'NONE', #50, #194, #147, .T. ) ;
#84 = CIRCLE ( 'NONE', #27, 10.00000000000000000 ) ;
#85 = CARTESIAN_POINT ( 'NONE',  ( 0.000000000000000000, 0.000000000000000000, 0.000000000000000000 ) ) ;
#86 = COLOUR_RGB ( '',0.6470588235294117974, 0.6196078431372549211, 0.5882352941176470784 ) ;
#87 = FACE_OUTER_BOUND ( 'NONE', #44, .T. ) ;
#88 = EDGE_CURVE ( 'NONE', #148, #180, #142, .T. ) ;
#89 = MECHANICAL_DESIGN_GEOMETRIC_PRESENTATION_REPRESENTATION (  '', ( #2 ), #119 ) ;
#90 = SURFACE_STYLE_USAGE ( .BOTH. , #161 ) ;
#91 = EDGE_CURVE ( 'NONE', #180, #50, #113, .T. ) ;
#92 = VECTOR ( 'NONE', #115, 1000.000000000000000 ) ;
#93 = ORIENTED_EDGE ( 'NONE', *, *, #154, .T. ) ;
#94 =( NAMED_UNIT ( * ) SI_UNIT ( $, .STERADIAN. ) SOLID_ANGLE_UNIT ( ) );
#95 = AXIS2_PLACEMENT_3D ( 'NONE', #32, #199, #153 ) ;
#96 = MECHANICAL_DESIGN_GEOMETRIC_PRESENTATION_REPRESENTATION (  '', ( #105 ), #137 ) ;
#97 =( NAMED_UNIT ( * ) PLANE_ANGLE_UNIT ( ) SI_UNIT ( $, .RADIAN. ) );
#98 = ADVANCED_FACE ( 'NONE', ( #68 ), #67, .T. ) ;
#99 = PRESENTATION_STYLE_ASSIGNMENT (( #127 ) ) ;
#100 = CARTESIAN_POINT ( 'NONE',  ( -10.00000000000000000, 0.000000000000000000, 1000.000000000000000 ) ) ;
#101 = CIRCLE ( 'NONE', #59, 10.00000000000000000 ) ;
#102 = FILL_AREA_STYLE ('',( #37 ) ) ;
#103 =( NAMED_UNIT ( * ) SI_UNIT ( $, .STERADIAN. ) SOLID_ANGLE_UNIT ( ) );
#104 = CARTESIAN_POINT ( 'NONE',  ( 0.000000000000000000, 0.000000000000000000, 0.000000000000000000 ) ) ;
#105 = STYLED_ITEM ( 'NONE', ( #99 ), #98 ) ;
#106 = CARTESIAN_POINT ( 'NONE',  ( 10.00000000000000000, 1.224646799147353256E-15, 1000.000000000000000 ) ) ;
#107 = UNCERTAINTY_MEASURE_WITH_UNIT (LENGTH_MEASURE( 1.000000000000000082E-05 ), #120, 'distance_accuracy_value', 'NONE');
#108 = SURFACE_STYLE_USAGE ( .BOTH. , #164 ) ;
#109 = PRESENTATION_LAYER_ASSIGNMENT (  '', '', ( #2 ) ) ;
#110 = PRESENTATION_STYLE_ASSIGNMENT (( #62 ) ) ;
#111 = PRESENTATION_STYLE_ASSIGNMENT (( #108 ) ) ;
#112 = DIRECTION ( 'NONE',  ( 1.000000000000000000, 0.000000000000000000, 0.000000000000000000 ) ) ;
#113 = LINE ( 'NONE', #171, #92 ) ;
#114 = COLOUR_RGB ( '',0.8980392156862745390, 0.8980392156862745390, 0.8980392156862745390 ) ;
#115 = DIRECTION ( 'NONE',  ( -0.000000000000000000, -0.000000000000000000, -1.000000000000000000 ) ) ;
#116 =( GEOMETRIC_REPRESENTATION_CONTEXT ( 3 ) GLOBAL_UNCERTAINTY_ASSIGNED_CONTEXT ( ( #10 ) ) GLOBAL_UNIT_ASSIGNED_CONTEXT ( ( #55, #25, #42 ) ) REPRESENTATION_CONTEXT ( 'NONE', 'WORKASPACE' ) );
#117 = SURFACE_SIDE_STYLE ('',( #198 ) ) ;
#118 = SURFACE_STYLE_USAGE ( .BOTH. , #73 ) ;
#119 =( GEOMETRIC_REPRESENTATION_CONTEXT ( 3 ) GLOBAL_UNCERTAINTY_ASSIGNED_CONTEXT ( ( #139 ) ) GLOBAL_UNIT_ASSIGNED_CONTEXT ( ( #81, #82, #66 ) ) REPRESENTATION_CONTEXT ( 'NONE', 'WORKASPACE' ) );
#120 =( LENGTH_UNIT ( ) NAMED_UNIT ( * ) SI_UNIT ( .MILLI., .METRE. ) );
#121 = CARTESIAN_POINT ( 'NONE',  ( 0.000000000000000000, 0.000000000000000000, 1000.000000000000000 ) ) ;
#122 = MECHANICAL_DESIGN_GEOMETRIC_PRESENTATION_REPRESENTATION (  '', ( #162 ), #76 ) ;
#123 = FILL_AREA_STYLE ('',( #135 ) ) ;
#124 = ORIENTED_EDGE ( 'NONE', *, *, #88, .T. ) ;
#125 = AXIS2_PLACEMENT_3D ( 'NONE', #85, #156, #64 ) ;
#126 = FILL_AREA_STYLE_COLOUR ( '', #33 ) ;
#127 = SURFACE_STYLE_USAGE ( .BOTH. , #54 ) ;
#128 = STYLED_ITEM ( 'NONE', ( #111 ), #38 ) ;
#129 = CARTESIAN_POINT ( 'NONE',  ( 0.000000000000000000, 0.000000000000000000, 1000.000000000000000 ) ) ;
#130 = STYLED_ITEM ( 'NONE', ( #110 ), #31 ) ;
#131 = CARTESIAN_POINT ( 'NONE',  ( 0.000000000000000000, 0.000000000000000000, 0.000000000000000000 ) ) ;
#132 = FILL_AREA_STYLE ('',( #58 ) ) ;
#133 = SURFACE_STYLE_FILL_AREA ( #132 ) ;
#134 = APPLICATION_PROTOCOL_DEFINITION ( 'draft international standard', 'automotive_design', 1998, #35 ) ;
#135 = FILL_AREA_STYLE_COLOUR ( '', #86 ) ;
#136 = PRODUCT_CONTEXT ( 'NONE', #35, 'mechanical' ) ;
#137 =( GEOMETRIC_REPRESENTATION_CONTEXT ( 3 ) GLOBAL_UNCERTAINTY_ASSIGNED_CONTEXT ( ( #18 ) ) GLOBAL_UNIT_ASSIGNED_CONTEXT ( ( #157, #183, #152 ) ) REPRESENTATION_CONTEXT ( 'NONE', 'WORKASPACE' ) );
#138 = FILL_AREA_STYLE_COLOUR ( '', #34 ) ;
#139 = UNCERTAINTY_MEASURE_WITH_UNIT (LENGTH_MEASURE( 1.000000000000000082E-05 ), #81, 'distance_accuracy_value', 'NONE');
#140 = FILL_AREA_STYLE ('',( #14 ) ) ;
#141 = DIRECTION ( 'NONE',  ( 1.000000000000000000, 0.000000000000000000, 0.000000000000000000 ) ) ;
#142 = CIRCLE ( 'NONE', #200, 10.00000000000000000 ) ;
#143 = PRESENTATION_LAYER_ASSIGNMENT (  '', '', ( #128 ) ) ;
#144 = PRESENTATION_LAYER_ASSIGNMENT (  '', '', ( #130 ) ) ;
#145 = CARTESIAN_POINT ( 'NONE',  ( 0.000000000000000000, 0.000000000000000000, 1000.000000000000000 ) ) ;
#146 =( NAMED_UNIT ( * ) SI_UNIT ( $, .STERADIAN. ) SOLID_ANGLE_UNIT ( ) );
#147 = CIRCLE ( 'NONE', #125, 10.00000000000000000 ) ;
#148 = VERTEX_POINT ( 'NONE', #160 ) ;
#149 = PRODUCT_DEFINITION_SHAPE ( 'NONE', 'NONE',  #9 ) ;
#150 = DIRECTION ( 'NONE',  ( 1.000000000000000000, 0.000000000000000000, 0.000000000000000000 ) ) ;
#151 = ORIENTED_EDGE ( 'NONE', *, *, #91, .T. ) ;
#152 =( NAMED_UNIT ( * ) SI_UNIT ( $, .STERADIAN. ) SOLID_ANGLE_UNIT ( ) );
#153 = DIRECTION ( 'NONE',  ( -1.000000000000000000, 0.000000000000000000, 0.000000000000000000 ) ) ;
#154 = EDGE_CURVE ( 'NONE', #148, #194, #19, .T. ) ;
#155 = CLOSED_SHELL ( 'NONE', ( #181, #57, #98, #163 ) ) ;
#156 = DIRECTION ( 'NONE',  ( 0.000000000000000000, 0.000000000000000000, 1.000000000000000000 ) ) ;
#157 =( LENGTH_UNIT ( ) NAMED_UNIT ( * ) SI_UNIT ( .MILLI., .METRE. ) );
#158 =( NAMED_UNIT ( * ) PLANE_ANGLE_UNIT ( ) SI_UNIT ( $, .RADIAN. ) );
#159 = DIRECTION ( 'NONE',  ( 1.000000000000000000, 0.000000000000000000, -0.000000000000000000 ) ) ;
#160 = CARTESIAN_POINT ( 'NONE',  ( -10.00000000000000000, 0.000000000000000000, 1000.000000000000000 ) ) ;
#161 = SURFACE_SIDE_STYLE ('',( #17 ) ) ;
#162 = STYLED_ITEM ( 'NONE', ( #69 ), #181 ) ;
#163 = ADVANCED_FACE ( 'NONE', ( #190 ), #188, .F. ) ;
#164 = SURFACE_SIDE_STYLE ('',( #5 ) ) ;
#165 = ORIENTED_EDGE ( 'NONE', *, *, #196, .T. ) ;
#166 = MECHANICAL_DESIGN_GEOMETRIC_PRESENTATION_REPRESENTATION (  '', ( #128 ), #40 ) ;
#167 = ORIENTED_EDGE ( 'NONE', *, *, #83, .F. ) ;
#168 = COLOUR_RGB ( '',0.8980392156862745390, 0.8980392156862745390, 0.8980392156862745390 ) ;
#169 = CARTESIAN_POINT ( 'NONE',  ( 10.00000000000000000, 1.224646799147353256E-15, 0.000000000000000000 ) ) ;
#170 = DIRECTION ( 'NONE',  ( 0.000000000000000000, 0.000000000000000000, 1.000000000000000000 ) ) ;
#171 = CARTESIAN_POINT ( 'NONE',  ( 10.00000000000000000, 1.224646799147353256E-15, 1000.000000000000000 ) ) ;
#172 = PRESENTATION_STYLE_ASSIGNMENT (( #186 ) ) ;
#173 = COLOUR_RGB ( '',0.8980392156862745390, 0.8980392156862745390, 0.8980392156862745390 ) ;
#174 = DIRECTION ( 'NONE',  ( 0.000000000000000000, 0.000000000000000000, 1.000000000000000000 ) ) ;
#175 =( LENGTH_UNIT ( ) NAMED_UNIT ( * ) SI_UNIT ( .MILLI., .METRE. ) );
#176 = DIRECTION ( 'NONE',  ( 0.000000000000000000, 0.000000000000000000, 1.000000000000000000 ) ) ;
#177 = MECHANICAL_DESIGN_GEOMETRIC_PRESENTATION_REPRESENTATION (  '', ( #16 ), #22 ) ;
#178 = AXIS2_PLACEMENT_3D ( 'NONE', #193, #78, #150 ) ;
#179 = ORIENTED_EDGE ( 'NONE', *, *, #88, .F. ) ;
#180 = VERTEX_POINT ( 'NONE', #106 ) ;
#181 = ADVANCED_FACE ( 'NONE', ( #87 ), #1, .T. ) ;
#182 = EDGE_LOOP ( 'NONE', ( #124, #49 ) ) ;
#183 =( NAMED_UNIT ( * ) PLANE_ANGLE_UNIT ( ) SI_UNIT ( $, .RADIAN. ) );
#184 = PRODUCT_DEFINITION_CONTEXT ( 'detailed design', #45, 'design' ) ;
#185 = FILL_AREA_STYLE ('',( #126 ) ) ;
#186 = SURFACE_STYLE_USAGE ( .BOTH. , #117 ) ;
#187 = SURFACE_STYLE_FILL_AREA ( #185 ) ;
#188 = PLANE ( 'NONE',  #52 ) ;
#189 = DIRECTION ( 'NONE',  ( -0.000000000000000000, -0.000000000000000000, -1.000000000000000000 ) ) ;
#190 = FACE_OUTER_BOUND ( 'NONE', #43, .T. ) ;
#191 = PRODUCT ( 'W20', 'W20', '', ( #136 ) ) ;
#192 = ORIENTED_EDGE ( 'NONE', *, *, #154, .F. ) ;
#193 = CARTESIAN_POINT ( 'NONE',  ( 0.000000000000000000, 0.000000000000000000, 0.000000000000000000 ) ) ;
#194 = VERTEX_POINT ( 'NONE', #71 ) ;
#195 = CARTESIAN_POINT ( 'NONE',  ( 0.000000000000000000, 0.000000000000000000, 1000.000000000000000 ) ) ;
#196 = EDGE_CURVE ( 'NONE', #194, #50, #101, .T. ) ;
#197 =( NAMED_UNIT ( * ) SI_UNIT ( $, .STERADIAN. ) SOLID_ANGLE_UNIT ( ) );
#198 = SURFACE_STYLE_FILL_AREA ( #140 ) ;
#199 = DIRECTION ( 'NONE',  ( -0.000000000000000000, -0.000000000000000000, -1.000000000000000000 ) ) ;
#200 = AXIS2_PLACEMENT_3D ( 'NONE', #129, #170, #112 ) ;
ENDSEC;
END-ISO-10303-21;
