ISO-10303-21;
HEADER;
FILE_DESCRIPTION (( 'STEP AP214' ),
    '1' );
FILE_NAME ('W25.STEP',
    '2021-12-29T08:09:15',
    ( '' ),
    ( '' ),
    'SwSTEP 2.0',
    'SolidWorks 2020',
    '' );
FILE_SCHEMA (( 'AUTOMOTIVE_DESIGN' ));
ENDSEC;

DATA;
#1 =( GEOMETRIC_REPRESENTATION_CONTEXT ( 3 ) GLOBAL_UNCERTAINTY_ASSIGNED_CONTEXT ( ( #56 ) ) GLOBAL_UNIT_ASSIGNED_CONTEXT ( ( #42, #60, #19 ) ) REPRESENTATION_CONTEXT ( 'NONE', 'WORKASPACE' ) );
#2 = CARTESIAN_POINT ( 'NONE',  ( 12.50000000000000000, 1.530808498934191521E-15, 1000.000000000000000 ) ) ;
#3 = EDGE_LOOP ( 'NONE', ( #38, #57 ) ) ;
#4 = ORIENTED_EDGE ( 'NONE', *, *, #117, .T. ) ;
#5 = FACE_OUTER_BOUND ( 'NONE', #82, .T. ) ;
#6 = DIRECTION ( 'NONE',  ( -0.000000000000000000, -0.000000000000000000, -1.000000000000000000 ) ) ;
#7 = STYLED_ITEM ( 'NONE', ( #63 ), #62 ) ;
#8 = CARTESIAN_POINT ( 'NONE',  ( 12.50000000000000000, 1.530808498934191521E-15, 1000.000000000000000 ) ) ;
#9 = CARTESIAN_POINT ( 'NONE',  ( 0.000000000000000000, 0.000000000000000000, 0.000000000000000000 ) ) ;
#10 = AXIS2_PLACEMENT_3D ( 'NONE', #102, #134, #83 ) ;
#11 = PRODUCT_RELATED_PRODUCT_CATEGORY ( 'part', '', ( #58 ) ) ;
#12 = SURFACE_STYLE_FILL_AREA ( #22 ) ;
#13 = VERTEX_POINT ( 'NONE', #44 ) ;
#14 = EDGE_LOOP ( 'NONE', ( #112, #41, #135, #69 ) ) ;
#15 = ORIENTED_EDGE ( 'NONE', *, *, #78, .T. ) ;
#16 = AXIS2_PLACEMENT_3D ( 'NONE', #9, #51, #21 ) ;
#17 = DIRECTION ( 'NONE',  ( -0.000000000000000000, -0.000000000000000000, -1.000000000000000000 ) ) ;
#18 = DIRECTION ( 'NONE',  ( 0.000000000000000000, 0.000000000000000000, 1.000000000000000000 ) ) ;
#19 =( NAMED_UNIT ( * ) SI_UNIT ( $, .STERADIAN. ) SOLID_ANGLE_UNIT ( ) );
#20 = AXIS2_PLACEMENT_3D ( 'NONE', #123, #128, #40 ) ;
#21 = DIRECTION ( 'NONE',  ( 1.000000000000000000, 0.000000000000000000, -0.000000000000000000 ) ) ;
#22 = FILL_AREA_STYLE ('',( #34 ) ) ;
#23 = DIRECTION ( 'NONE',  ( 0.000000000000000000, 0.000000000000000000, 1.000000000000000000 ) ) ;
#24 = AXIS2_PLACEMENT_3D ( 'NONE', #27, #6, #127 ) ;
#25 = APPLICATION_CONTEXT ( 'automotive_design' ) ;
#26 = UNCERTAINTY_MEASURE_WITH_UNIT (LENGTH_MEASURE( 1.000000000000000082E-05 ), #99, 'distance_accuracy_value', 'NONE');
#27 = CARTESIAN_POINT ( 'NONE',  ( 0.000000000000000000, 0.000000000000000000, 1000.000000000000000 ) ) ;
#28 = CIRCLE ( 'NONE', #73, 12.50000000000000000 ) ;
#29 = FILL_AREA_STYLE ('',( #52 ) ) ;
#30 = DIRECTION ( 'NONE',  ( 0.000000000000000000, 0.000000000000000000, 1.000000000000000000 ) ) ;
#31 = VERTEX_POINT ( 'NONE', #8 ) ;
#32 = SURFACE_STYLE_USAGE ( .BOTH. , #87 ) ;
#33 = SURFACE_STYLE_USAGE ( .BOTH. , #90 ) ;
#34 = FILL_AREA_STYLE_COLOUR ( '', #74 ) ;
#35 = ORIENTED_EDGE ( 'NONE', *, *, #117, .F. ) ;
#36 = AXIS2_PLACEMENT_3D ( 'NONE', #113, #17, #108 ) ;
#37 = EDGE_CURVE ( 'NONE', #13, #98, #116, .T. ) ;
#38 = ORIENTED_EDGE ( 'NONE', *, *, #37, .F. ) ;
#39 = ADVANCED_FACE ( 'NONE', ( #88 ), #138, .F. ) ;
#40 = DIRECTION ( 'NONE',  ( 1.000000000000000000, 0.000000000000000000, 0.000000000000000000 ) ) ;
#41 = ORIENTED_EDGE ( 'NONE', *, *, #78, .F. ) ;
#42 =( LENGTH_UNIT ( ) NAMED_UNIT ( * ) SI_UNIT ( .MILLI., .METRE. ) );
#43 = DIRECTION ( 'NONE',  ( 1.000000000000000000, 0.000000000000000000, 0.000000000000000000 ) ) ;
#44 = CARTESIAN_POINT ( 'NONE',  ( -12.50000000000000000, 0.000000000000000000, 0.000000000000000000 ) ) ;
#45 = MECHANICAL_DESIGN_GEOMETRIC_PRESENTATION_REPRESENTATION (  '', ( #7 ), #1 ) ;
#46 = PRESENTATION_LAYER_ASSIGNMENT (  '', '', ( #66 ) ) ;
#47 = PRODUCT_DEFINITION_SHAPE ( 'NONE', 'NONE',  #129 ) ;
#48 = PLANE ( 'NONE',  #132 ) ;
#49 = FACE_OUTER_BOUND ( 'NONE', #14, .T. ) ;
#50 = FACE_OUTER_BOUND ( 'NONE', #61, .T. ) ;
#51 = DIRECTION ( 'NONE',  ( 0.000000000000000000, 0.000000000000000000, 1.000000000000000000 ) ) ;
#52 = FILL_AREA_STYLE_COLOUR ( '', #65 ) ;
#53 =( GEOMETRIC_REPRESENTATION_CONTEXT ( 3 ) GLOBAL_UNCERTAINTY_ASSIGNED_CONTEXT ( ( #26 ) ) GLOBAL_UNIT_ASSIGNED_CONTEXT ( ( #99, #55, #118 ) ) REPRESENTATION_CONTEXT ( 'NONE', 'WORKASPACE' ) );
#54 =( LENGTH_UNIT ( ) NAMED_UNIT ( * ) SI_UNIT ( .MILLI., .METRE. ) );
#55 =( NAMED_UNIT ( * ) PLANE_ANGLE_UNIT ( ) SI_UNIT ( $, .RADIAN. ) );
#56 = UNCERTAINTY_MEASURE_WITH_UNIT (LENGTH_MEASURE( 1.000000000000000082E-05 ), #42, 'distance_accuracy_value', 'NONE');
#57 = ORIENTED_EDGE ( 'NONE', *, *, #137, .F. ) ;
#58 = PRODUCT ( 'W25', 'W25', '', ( #104 ) ) ;
#59 = DIRECTION ( 'NONE',  ( 1.000000000000000000, 0.000000000000000000, 0.000000000000000000 ) ) ;
#60 =( NAMED_UNIT ( * ) PLANE_ANGLE_UNIT ( ) SI_UNIT ( $, .RADIAN. ) );
#61 = EDGE_LOOP ( 'NONE', ( #35, #96, #110, #107 ) ) ;
#62 = MANIFOLD_SOLID_BREP ( 'Boss-Extrude1', #93 ) ;
#63 = PRESENTATION_STYLE_ASSIGNMENT (( #32 ) ) ;
#64 = CARTESIAN_POINT ( 'NONE',  ( 0.000000000000000000, 0.000000000000000000, 0.000000000000000000 ) ) ;
#65 = COLOUR_RGB ( '',0.7921568627450980005, 0.8196078431372548767, 0.9333333333333333481 ) ;
#66 = STYLED_ITEM ( 'NONE', ( #130 ), #79 ) ;
#67 = APPLICATION_PROTOCOL_DEFINITION ( 'draft international standard', 'automotive_design', 1998, #25 ) ;
#68 = SHAPE_DEFINITION_REPRESENTATION ( #47, #79 ) ;
#69 = ORIENTED_EDGE ( 'NONE', *, *, #37, .T. ) ;
#70 = APPLICATION_PROTOCOL_DEFINITION ( 'draft international standard', 'automotive_design', 1998, #89 ) ;
#71 = AXIS2_PLACEMENT_3D ( 'NONE', #77, #30, #59 ) ;
#72 = CYLINDRICAL_SURFACE ( 'NONE', #36, 12.50000000000000000 ) ;
#73 = AXIS2_PLACEMENT_3D ( 'NONE', #114, #18, #43 ) ;
#74 = COLOUR_RGB ( '',0.7921568627450980005, 0.8196078431372548767, 0.9333333333333333481 ) ;
#75 = DIRECTION ( 'NONE',  ( 1.000000000000000000, 0.000000000000000000, -0.000000000000000000 ) ) ;
#76 = VERTEX_POINT ( 'NONE', #109 ) ;
#77 = CARTESIAN_POINT ( 'NONE',  ( 0.000000000000000000, 0.000000000000000000, 0.000000000000000000 ) ) ;
#78 = EDGE_CURVE ( 'NONE', #76, #31, #84, .T. ) ;
#79 = ADVANCED_BREP_SHAPE_REPRESENTATION ( 'W25', ( #62, #10 ), #133 ) ;
#80 = ADVANCED_FACE ( 'NONE', ( #50 ), #85, .T. ) ;
#81 = CIRCLE ( 'NONE', #126, 12.50000000000000000 ) ;
#82 = EDGE_LOOP ( 'NONE', ( #15, #4 ) ) ;
#83 = DIRECTION ( 'NONE',  ( 1.000000000000000000, 0.000000000000000000, 0.000000000000000000 ) ) ;
#84 = CIRCLE ( 'NONE', #20, 12.50000000000000000 ) ;
#85 = CYLINDRICAL_SURFACE ( 'NONE', #24, 12.50000000000000000 ) ;
#86 = LINE ( 'NONE', #125, #120 ) ;
#87 = SURFACE_SIDE_STYLE ('',( #115 ) ) ;
#88 = FACE_OUTER_BOUND ( 'NONE', #3, .T. ) ;
#89 = APPLICATION_CONTEXT ( 'automotive_design' ) ;
#90 = SURFACE_SIDE_STYLE ('',( #12 ) ) ;
#91 =( NAMED_UNIT ( * ) PLANE_ANGLE_UNIT ( ) SI_UNIT ( $, .RADIAN. ) );
#92 = PRODUCT_DEFINITION_CONTEXT ( 'detailed design', #89, 'design' ) ;
#93 = CLOSED_SHELL ( 'NONE', ( #80, #103, #105, #39 ) ) ;
#94 = PRODUCT_DEFINITION_FORMATION_WITH_SPECIFIED_SOURCE ( 'ANY', '', #58, .NOT_KNOWN. ) ;
#95 = CARTESIAN_POINT ( 'NONE',  ( 12.50000000000000000, 1.530808498934191521E-15, 0.000000000000000000 ) ) ;
#96 = ORIENTED_EDGE ( 'NONE', *, *, #122, .T. ) ;
#97 = CARTESIAN_POINT ( 'NONE',  ( 0.000000000000000000, 0.000000000000000000, 1000.000000000000000 ) ) ;
#98 = VERTEX_POINT ( 'NONE', #95 ) ;
#99 =( LENGTH_UNIT ( ) NAMED_UNIT ( * ) SI_UNIT ( .MILLI., .METRE. ) );
#100 = DIRECTION ( 'NONE',  ( 1.000000000000000000, 0.000000000000000000, 0.000000000000000000 ) ) ;
#101 = DIRECTION ( 'NONE',  ( -0.000000000000000000, -0.000000000000000000, -1.000000000000000000 ) ) ;
#102 = CARTESIAN_POINT ( 'NONE',  ( 0.000000000000000000, 0.000000000000000000, 0.000000000000000000 ) ) ;
#103 = ADVANCED_FACE ( 'NONE', ( #49 ), #72, .T. ) ;
#104 = PRODUCT_CONTEXT ( 'NONE', #25, 'mechanical' ) ;
#105 = ADVANCED_FACE ( 'NONE', ( #5 ), #48, .T. ) ;
#106 = PRESENTATION_LAYER_ASSIGNMENT (  '', '', ( #7 ) ) ;
#107 = ORIENTED_EDGE ( 'NONE', *, *, #111, .F. ) ;
#108 = DIRECTION ( 'NONE',  ( -1.000000000000000000, 0.000000000000000000, 0.000000000000000000 ) ) ;
#109 = CARTESIAN_POINT ( 'NONE',  ( -12.50000000000000000, 0.000000000000000000, 1000.000000000000000 ) ) ;
#110 = ORIENTED_EDGE ( 'NONE', *, *, #137, .T. ) ;
#111 = EDGE_CURVE ( 'NONE', #76, #13, #86, .T. ) ;
#112 = ORIENTED_EDGE ( 'NONE', *, *, #122, .F. ) ;
#113 = CARTESIAN_POINT ( 'NONE',  ( 0.000000000000000000, 0.000000000000000000, 1000.000000000000000 ) ) ;
#114 = CARTESIAN_POINT ( 'NONE',  ( 0.000000000000000000, 0.000000000000000000, 1000.000000000000000 ) ) ;
#115 = SURFACE_STYLE_FILL_AREA ( #29 ) ;
#116 = CIRCLE ( 'NONE', #71, 12.50000000000000000 ) ;
#117 = EDGE_CURVE ( 'NONE', #31, #76, #28, .T. ) ;
#118 =( NAMED_UNIT ( * ) SI_UNIT ( $, .STERADIAN. ) SOLID_ANGLE_UNIT ( ) );
#119 = LINE ( 'NONE', #2, #124 ) ;
#120 = VECTOR ( 'NONE', #140, 1000.000000000000000 ) ;
#121 = UNCERTAINTY_MEASURE_WITH_UNIT (LENGTH_MEASURE( 1.000000000000000082E-05 ), #54, 'distance_accuracy_value', 'NONE');
#122 = EDGE_CURVE ( 'NONE', #31, #98, #119, .T. ) ;
#123 = CARTESIAN_POINT ( 'NONE',  ( 0.000000000000000000, 0.000000000000000000, 1000.000000000000000 ) ) ;
#124 = VECTOR ( 'NONE', #101, 1000.000000000000000 ) ;
#125 = CARTESIAN_POINT ( 'NONE',  ( -12.50000000000000000, 0.000000000000000000, 1000.000000000000000 ) ) ;
#126 = AXIS2_PLACEMENT_3D ( 'NONE', #64, #23, #100 ) ;
#127 = DIRECTION ( 'NONE',  ( -1.000000000000000000, 0.000000000000000000, 0.000000000000000000 ) ) ;
#128 = DIRECTION ( 'NONE',  ( 0.000000000000000000, 0.000000000000000000, 1.000000000000000000 ) ) ;
#129 = PRODUCT_DEFINITION ( 'UNKNOWN', '', #94, #92 ) ;
#130 = PRESENTATION_STYLE_ASSIGNMENT (( #33 ) ) ;
#131 =( NAMED_UNIT ( * ) SI_UNIT ( $, .STERADIAN. ) SOLID_ANGLE_UNIT ( ) );
#132 = AXIS2_PLACEMENT_3D ( 'NONE', #97, #136, #75 ) ;
#133 =( GEOMETRIC_REPRESENTATION_CONTEXT ( 3 ) GLOBAL_UNCERTAINTY_ASSIGNED_CONTEXT ( ( #121 ) ) GLOBAL_UNIT_ASSIGNED_CONTEXT ( ( #54, #91, #131 ) ) REPRESENTATION_CONTEXT ( 'NONE', 'WORKASPACE' ) );
#134 = DIRECTION ( 'NONE',  ( 0.000000000000000000, 0.000000000000000000, 1.000000000000000000 ) ) ;
#135 = ORIENTED_EDGE ( 'NONE', *, *, #111, .T. ) ;
#136 = DIRECTION ( 'NONE',  ( 0.000000000000000000, 0.000000000000000000, 1.000000000000000000 ) ) ;
#137 = EDGE_CURVE ( 'NONE', #98, #13, #81, .T. ) ;
#138 = PLANE ( 'NONE',  #16 ) ;
#139 = MECHANICAL_DESIGN_GEOMETRIC_PRESENTATION_REPRESENTATION (  '', ( #66 ), #53 ) ;
#140 = DIRECTION ( 'NONE',  ( -0.000000000000000000, -0.000000000000000000, -1.000000000000000000 ) ) ;
ENDSEC;
END-ISO-10303-21;
