ISO-10303-21;
HEADER;
FILE_DESCRIPTION (( 'STEP AP214' ),
    '1' );
FILE_NAME ('W4.STEP',
    '2021-12-29T07:47:38',
    ( '' ),
    ( '' ),
    'SwSTEP 2.0',
    'SolidWorks 2020',
    '' );
FILE_SCHEMA (( 'AUTOMOTIVE_DESIGN' ));
ENDSEC;

DATA;
#1 = LINE ( 'NONE', #95, #177 ) ;
#2 = AXIS2_PLACEMENT_3D ( 'NONE', #113, #174, #36 ) ;
#3 = CARTESIAN_POINT ( 'NONE',  ( -2.000000000000000000, 0.000000000000000000, 0.000000000000000000 ) ) ;
#4 = PRESENTATION_LAYER_ASSIGNMENT (  '', '', ( #117 ) ) ;
#5 = UNCERTAINTY_MEASURE_WITH_UNIT (LENGTH_MEASURE( 1.000000000000000082E-05 ), #93, 'distance_accuracy_value', 'NONE');
#6 = APPLICATION_PROTOCOL_DEFINITION ( 'draft international standard', 'automotive_design', 1998, #136 ) ;
#7 = SURFACE_STYLE_FILL_AREA ( #170 ) ;
#8 = CYLINDRICAL_SURFACE ( 'NONE', #53, 2.000000000000000000 ) ;
#9 = DIRECTION ( 'NONE',  ( 0.000000000000000000, 0.000000000000000000, 1.000000000000000000 ) ) ;
#10 = VERTEX_POINT ( 'NONE', #116 ) ;
#11 = DIRECTION ( 'NONE',  ( 0.000000000000000000, 0.000000000000000000, 1.000000000000000000 ) ) ;
#12 = PRESENTATION_STYLE_ASSIGNMENT (( #164 ) ) ;
#13 =( NAMED_UNIT ( * ) SI_UNIT ( $, .STERADIAN. ) SOLID_ANGLE_UNIT ( ) );
#14 = DIRECTION ( 'NONE',  ( 0.000000000000000000, 0.000000000000000000, 1.000000000000000000 ) ) ;
#15 = COLOUR_RGB ( '',0.8980392156862745390, 0.8980392156862745390, 0.8980392156862745390 ) ;
#16 = AXIS2_PLACEMENT_3D ( 'NONE', #188, #64, #52 ) ;
#17 = EDGE_CURVE ( 'NONE', #87, #134, #194, .T. ) ;
#18 = FILL_AREA_STYLE_COLOUR ( '', #168 ) ;
#19 = AXIS2_PLACEMENT_3D ( 'NONE', #98, #173, #65 ) ;
#20 = FACE_OUTER_BOUND ( 'NONE', #105, .T. ) ;
#21 = APPLICATION_CONTEXT ( 'automotive_design' ) ;
#22 = APPLICATION_PROTOCOL_DEFINITION ( 'draft international standard', 'automotive_design', 1998, #21 ) ;
#23 = FILL_AREA_STYLE ('',( #159 ) ) ;
#24 = SURFACE_STYLE_FILL_AREA ( #23 ) ;
#25 = UNCERTAINTY_MEASURE_WITH_UNIT (LENGTH_MEASURE( 1.000000000000000082E-05 ), #51, 'distance_accuracy_value', 'NONE');
#26 = MANIFOLD_SOLID_BREP ( 'Boss-Extrude1', #78 ) ;
#27 = ORIENTED_EDGE ( 'NONE', *, *, #108, .F. ) ;
#28 = FILL_AREA_STYLE_COLOUR ( '', #15 ) ;
#29 = FILL_AREA_STYLE ('',( #182 ) ) ;
#30 = UNCERTAINTY_MEASURE_WITH_UNIT (LENGTH_MEASURE( 1.000000000000000082E-05 ), #142, 'distance_accuracy_value', 'NONE');
#31 = DIRECTION ( 'NONE',  ( 1.000000000000000000, 0.000000000000000000, 0.000000000000000000 ) ) ;
#32 = STYLED_ITEM ( 'NONE', ( #197 ), #69 ) ;
#33 = PRODUCT_DEFINITION ( 'UNKNOWN', '', #193, #147 ) ;
#34 = DIRECTION ( 'NONE',  ( 0.000000000000000000, 0.000000000000000000, 1.000000000000000000 ) ) ;
#35 =( LENGTH_UNIT ( ) NAMED_UNIT ( * ) SI_UNIT ( .MILLI., .METRE. ) );
#36 = DIRECTION ( 'NONE',  ( 1.000000000000000000, 0.000000000000000000, 0.000000000000000000 ) ) ;
#37 = ORIENTED_EDGE ( 'NONE', *, *, #180, .F. ) ;
#38 = STYLED_ITEM ( 'NONE', ( #172 ), #148 ) ;
#39 = ORIENTED_EDGE ( 'NONE', *, *, #157, .T. ) ;
#40 = SURFACE_STYLE_USAGE ( .BOTH. , #163 ) ;
#41 = SURFACE_STYLE_FILL_AREA ( #29 ) ;
#42 = SURFACE_SIDE_STYLE ('',( #41 ) ) ;
#43 = MECHANICAL_DESIGN_GEOMETRIC_PRESENTATION_REPRESENTATION (  '', ( #192 ), #91 ) ;
#44 = CIRCLE ( 'NONE', #176, 2.000000000000000000 ) ;
#45 = STYLED_ITEM ( 'NONE', ( #12 ), #145 ) ;
#46 =( NAMED_UNIT ( * ) PLANE_ANGLE_UNIT ( ) SI_UNIT ( $, .RADIAN. ) );
#47 = MECHANICAL_DESIGN_GEOMETRIC_PRESENTATION_REPRESENTATION (  '', ( #32 ), #150 ) ;
#48 = UNCERTAINTY_MEASURE_WITH_UNIT (LENGTH_MEASURE( 1.000000000000000082E-05 ), #104, 'distance_accuracy_value', 'NONE');
#49 = SURFACE_SIDE_STYLE ('',( #75 ) ) ;
#50 =( NAMED_UNIT ( * ) SI_UNIT ( $, .STERADIAN. ) SOLID_ANGLE_UNIT ( ) );
#51 =( LENGTH_UNIT ( ) NAMED_UNIT ( * ) SI_UNIT ( .MILLI., .METRE. ) );
#52 = DIRECTION ( 'NONE',  ( 1.000000000000000000, 0.000000000000000000, -0.000000000000000000 ) ) ;
#53 = AXIS2_PLACEMENT_3D ( 'NONE', #156, #82, #126 ) ;
#54 = AXIS2_PLACEMENT_3D ( 'NONE', #85, #9, #100 ) ;
#55 = AXIS2_PLACEMENT_3D ( 'NONE', #138, #34, #63 ) ;
#56 = UNCERTAINTY_MEASURE_WITH_UNIT (LENGTH_MEASURE( 1.000000000000000082E-05 ), #149, 'distance_accuracy_value', 'NONE');
#57 = ORIENTED_EDGE ( 'NONE', *, *, #66, .T. ) ;
#58 = DIRECTION ( 'NONE',  ( 1.000000000000000000, 0.000000000000000000, -0.000000000000000000 ) ) ;
#59 = MECHANICAL_DESIGN_GEOMETRIC_PRESENTATION_REPRESENTATION (  '', ( #45 ), #102 ) ;
#60 = ORIENTED_EDGE ( 'NONE', *, *, #17, .F. ) ;
#61 = FACE_OUTER_BOUND ( 'NONE', #132, .T. ) ;
#62 = PLANE ( 'NONE',  #125 ) ;
#63 = DIRECTION ( 'NONE',  ( 1.000000000000000000, 0.000000000000000000, 0.000000000000000000 ) ) ;
#64 = DIRECTION ( 'NONE',  ( 0.000000000000000000, 0.000000000000000000, 1.000000000000000000 ) ) ;
#65 = DIRECTION ( 'NONE',  ( 1.000000000000000000, 0.000000000000000000, 0.000000000000000000 ) ) ;
#66 = EDGE_CURVE ( 'NONE', #86, #10, #44, .T. ) ;
#67 =( NAMED_UNIT ( * ) SI_UNIT ( $, .STERADIAN. ) SOLID_ANGLE_UNIT ( ) );
#68 = ORIENTED_EDGE ( 'NONE', *, *, #17, .T. ) ;
#69 = ADVANCED_FACE ( 'NONE', ( #61 ), #119, .T. ) ;
#70 = SURFACE_STYLE_FILL_AREA ( #191 ) ;
#71 = PRESENTATION_LAYER_ASSIGNMENT (  '', '', ( #45 ) ) ;
#72 = PRODUCT_RELATED_PRODUCT_CATEGORY ( 'part', '', ( #124 ) ) ;
#73 = ORIENTED_EDGE ( 'NONE', *, *, #66, .F. ) ;
#74 =( NAMED_UNIT ( * ) PLANE_ANGLE_UNIT ( ) SI_UNIT ( $, .RADIAN. ) );
#75 = SURFACE_STYLE_FILL_AREA ( #121 ) ;
#76 = COLOUR_RGB ( '',0.7921568627450980005, 0.8196078431372548767, 0.9333333333333333481 ) ;
#77 = PRESENTATION_STYLE_ASSIGNMENT (( #94 ) ) ;
#78 = CLOSED_SHELL ( 'NONE', ( #148, #69, #145, #110 ) ) ;
#79 = SHAPE_DEFINITION_REPRESENTATION ( #151, #178 ) ;
#80 = CARTESIAN_POINT ( 'NONE',  ( -2.000000000000000000, 0.000000000000000000, 500.0000000000000000 ) ) ;
#81 = CIRCLE ( 'NONE', #55, 2.000000000000000000 ) ;
#82 = DIRECTION ( 'NONE',  ( -0.000000000000000000, -0.000000000000000000, -1.000000000000000000 ) ) ;
#83 =( NAMED_UNIT ( * ) SI_UNIT ( $, .STERADIAN. ) SOLID_ANGLE_UNIT ( ) );
#84 =( GEOMETRIC_REPRESENTATION_CONTEXT ( 3 ) GLOBAL_UNCERTAINTY_ASSIGNED_CONTEXT ( ( #190 ) ) GLOBAL_UNIT_ASSIGNED_CONTEXT ( ( #35, #139, #67 ) ) REPRESENTATION_CONTEXT ( 'NONE', 'WORKASPACE' ) );
#85 = CARTESIAN_POINT ( 'NONE',  ( 0.000000000000000000, 0.000000000000000000, 500.0000000000000000 ) ) ;
#86 = VERTEX_POINT ( 'NONE', #3 ) ;
#87 = VERTEX_POINT ( 'NONE', #137 ) ;
#88 = SURFACE_STYLE_FILL_AREA ( #199 ) ;
#89 = EDGE_LOOP ( 'NONE', ( #60, #196, #162, #37 ) ) ;
#90 =( NAMED_UNIT ( * ) SI_UNIT ( $, .STERADIAN. ) SOLID_ANGLE_UNIT ( ) );
#91 =( GEOMETRIC_REPRESENTATION_CONTEXT ( 3 ) GLOBAL_UNCERTAINTY_ASSIGNED_CONTEXT ( ( #30 ) ) GLOBAL_UNIT_ASSIGNED_CONTEXT ( ( #142, #171, #50 ) ) REPRESENTATION_CONTEXT ( 'NONE', 'WORKASPACE' ) );
#92 = MECHANICAL_DESIGN_GEOMETRIC_PRESENTATION_REPRESENTATION (  '', ( #38 ), #84 ) ;
#93 =( LENGTH_UNIT ( ) NAMED_UNIT ( * ) SI_UNIT ( .MILLI., .METRE. ) );
#94 = SURFACE_STYLE_USAGE ( .BOTH. , #49 ) ;
#95 = CARTESIAN_POINT ( 'NONE',  ( 2.000000000000000000, 2.449293598294706414E-16, 500.0000000000000000 ) ) ;
#96 = PRESENTATION_STYLE_ASSIGNMENT (( #144 ) ) ;
#97 =( NAMED_UNIT ( * ) PLANE_ANGLE_UNIT ( ) SI_UNIT ( $, .RADIAN. ) );
#98 = CARTESIAN_POINT ( 'NONE',  ( 0.000000000000000000, 0.000000000000000000, 500.0000000000000000 ) ) ;
#99 = COLOUR_RGB ( '',0.7921568627450980005, 0.8196078431372548767, 0.9333333333333333481 ) ;
#100 = DIRECTION ( 'NONE',  ( 1.000000000000000000, 0.000000000000000000, 0.000000000000000000 ) ) ;
#101 = CARTESIAN_POINT ( 'NONE',  ( 0.000000000000000000, 0.000000000000000000, 0.000000000000000000 ) ) ;
#102 =( GEOMETRIC_REPRESENTATION_CONTEXT ( 3 ) GLOBAL_UNCERTAINTY_ASSIGNED_CONTEXT ( ( #48 ) ) GLOBAL_UNIT_ASSIGNED_CONTEXT ( ( #104, #74, #90 ) ) REPRESENTATION_CONTEXT ( 'NONE', 'WORKASPACE' ) );
#103 =( NAMED_UNIT ( * ) SI_UNIT ( $, .STERADIAN. ) SOLID_ANGLE_UNIT ( ) );
#104 =( LENGTH_UNIT ( ) NAMED_UNIT ( * ) SI_UNIT ( .MILLI., .METRE. ) );
#105 = EDGE_LOOP ( 'NONE', ( #73, #198 ) ) ;
#106 = EDGE_CURVE ( 'NONE', #10, #86, #81, .T. ) ;
#107 = MECHANICAL_DESIGN_GEOMETRIC_PRESENTATION_REPRESENTATION (  '', ( #186 ), #131 ) ;
#108 = EDGE_CURVE ( 'NONE', #87, #10, #1, .T. ) ;
#109 =( NAMED_UNIT ( * ) PLANE_ANGLE_UNIT ( ) SI_UNIT ( $, .RADIAN. ) );
#110 = ADVANCED_FACE ( 'NONE', ( #20 ), #62, .F. ) ;
#111 = FILL_AREA_STYLE_COLOUR ( '', #76 ) ;
#112 = LINE ( 'NONE', #80, #169 ) ;
#113 = CARTESIAN_POINT ( 'NONE',  ( 0.000000000000000000, 0.000000000000000000, 0.000000000000000000 ) ) ;
#114 = FACE_OUTER_BOUND ( 'NONE', #89, .T. ) ;
#115 = PRESENTATION_STYLE_ASSIGNMENT (( #127 ) ) ;
#116 = CARTESIAN_POINT ( 'NONE',  ( 2.000000000000000000, 2.449293598294706414E-16, 0.000000000000000000 ) ) ;
#117 = STYLED_ITEM ( 'NONE', ( #115 ), #26 ) ;
#118 = EDGE_LOOP ( 'NONE', ( #39, #68 ) ) ;
#119 = CYLINDRICAL_SURFACE ( 'NONE', #140, 2.000000000000000000 ) ;
#120 = CARTESIAN_POINT ( 'NONE',  ( -2.000000000000000000, 0.000000000000000000, 500.0000000000000000 ) ) ;
#121 = FILL_AREA_STYLE ('',( #18 ) ) ;
#122 =( GEOMETRIC_REPRESENTATION_CONTEXT ( 3 ) GLOBAL_UNCERTAINTY_ASSIGNED_CONTEXT ( ( #5 ) ) GLOBAL_UNIT_ASSIGNED_CONTEXT ( ( #93, #109, #103 ) ) REPRESENTATION_CONTEXT ( 'NONE', 'WORKASPACE' ) );
#123 = DIRECTION ( 'NONE',  ( -0.000000000000000000, -0.000000000000000000, -1.000000000000000000 ) ) ;
#124 = PRODUCT ( 'W4', 'W4', '', ( #154 ) ) ;
#125 = AXIS2_PLACEMENT_3D ( 'NONE', #167, #14, #58 ) ;
#126 = DIRECTION ( 'NONE',  ( -1.000000000000000000, 0.000000000000000000, 0.000000000000000000 ) ) ;
#127 = SURFACE_STYLE_USAGE ( .BOTH. , #129 ) ;
#128 = PRESENTATION_LAYER_ASSIGNMENT (  '', '', ( #192 ) ) ;
#129 = SURFACE_SIDE_STYLE ('',( #70 ) ) ;
#130 = MECHANICAL_DESIGN_GEOMETRIC_PRESENTATION_REPRESENTATION (  '', ( #117 ), #122 ) ;
#131 =( GEOMETRIC_REPRESENTATION_CONTEXT ( 3 ) GLOBAL_UNCERTAINTY_ASSIGNED_CONTEXT ( ( #179 ) ) GLOBAL_UNIT_ASSIGNED_CONTEXT ( ( #184, #46, #152 ) ) REPRESENTATION_CONTEXT ( 'NONE', 'WORKASPACE' ) );
#132 = EDGE_LOOP ( 'NONE', ( #27, #161, #165, #57 ) ) ;
#133 = PLANE ( 'NONE',  #16 ) ;
#134 = VERTEX_POINT ( 'NONE', #120 ) ;
#135 =( NAMED_UNIT ( * ) PLANE_ANGLE_UNIT ( ) SI_UNIT ( $, .RADIAN. ) );
#136 = APPLICATION_CONTEXT ( 'automotive_design' ) ;
#137 = CARTESIAN_POINT ( 'NONE',  ( 2.000000000000000000, 2.449293598294706414E-16, 500.0000000000000000 ) ) ;
#138 = CARTESIAN_POINT ( 'NONE',  ( 0.000000000000000000, 0.000000000000000000, 0.000000000000000000 ) ) ;
#139 =( NAMED_UNIT ( * ) PLANE_ANGLE_UNIT ( ) SI_UNIT ( $, .RADIAN. ) );
#140 = AXIS2_PLACEMENT_3D ( 'NONE', #160, #123, #185 ) ;
#141 = DIRECTION ( 'NONE',  ( -0.000000000000000000, -0.000000000000000000, -1.000000000000000000 ) ) ;
#142 =( LENGTH_UNIT ( ) NAMED_UNIT ( * ) SI_UNIT ( .MILLI., .METRE. ) );
#143 = SURFACE_STYLE_USAGE ( .BOTH. , #175 ) ;
#144 = SURFACE_STYLE_USAGE ( .BOTH. , #187 ) ;
#145 = ADVANCED_FACE ( 'NONE', ( #183 ), #133, .T. ) ;
#146 = PRESENTATION_LAYER_ASSIGNMENT (  '', '', ( #38 ) ) ;
#147 = PRODUCT_DEFINITION_CONTEXT ( 'detailed design', #21, 'design' ) ;
#148 = ADVANCED_FACE ( 'NONE', ( #114 ), #8, .T. ) ;
#149 =( LENGTH_UNIT ( ) NAMED_UNIT ( * ) SI_UNIT ( .MILLI., .METRE. ) );
#150 =( GEOMETRIC_REPRESENTATION_CONTEXT ( 3 ) GLOBAL_UNCERTAINTY_ASSIGNED_CONTEXT ( ( #56 ) ) GLOBAL_UNIT_ASSIGNED_CONTEXT ( ( #149, #135, #13 ) ) REPRESENTATION_CONTEXT ( 'NONE', 'WORKASPACE' ) );
#151 = PRODUCT_DEFINITION_SHAPE ( 'NONE', 'NONE',  #33 ) ;
#152 =( NAMED_UNIT ( * ) SI_UNIT ( $, .STERADIAN. ) SOLID_ANGLE_UNIT ( ) );
#153 = DIRECTION ( 'NONE',  ( -0.000000000000000000, -0.000000000000000000, -1.000000000000000000 ) ) ;
#154 = PRODUCT_CONTEXT ( 'NONE', #136, 'mechanical' ) ;
#155 = PRESENTATION_LAYER_ASSIGNMENT (  '', '', ( #32 ) ) ;
#156 = CARTESIAN_POINT ( 'NONE',  ( 0.000000000000000000, 0.000000000000000000, 500.0000000000000000 ) ) ;
#157 = EDGE_CURVE ( 'NONE', #134, #87, #200, .T. ) ;
#158 = COLOUR_RGB ( '',0.8980392156862745390, 0.8980392156862745390, 0.8980392156862745390 ) ;
#159 = FILL_AREA_STYLE_COLOUR ( '', #181 ) ;
#160 = CARTESIAN_POINT ( 'NONE',  ( 0.000000000000000000, 0.000000000000000000, 500.0000000000000000 ) ) ;
#161 = ORIENTED_EDGE ( 'NONE', *, *, #157, .F. ) ;
#162 = ORIENTED_EDGE ( 'NONE', *, *, #106, .T. ) ;
#163 = SURFACE_SIDE_STYLE ('',( #88 ) ) ;
#164 = SURFACE_STYLE_USAGE ( .BOTH. , #42 ) ;
#165 = ORIENTED_EDGE ( 'NONE', *, *, #180, .T. ) ;
#166 =( GEOMETRIC_REPRESENTATION_CONTEXT ( 3 ) GLOBAL_UNCERTAINTY_ASSIGNED_CONTEXT ( ( #25 ) ) GLOBAL_UNIT_ASSIGNED_CONTEXT ( ( #51, #97, #83 ) ) REPRESENTATION_CONTEXT ( 'NONE', 'WORKASPACE' ) );
#167 = CARTESIAN_POINT ( 'NONE',  ( 0.000000000000000000, 0.000000000000000000, 0.000000000000000000 ) ) ;
#168 = COLOUR_RGB ( '',0.8980392156862745390, 0.8980392156862745390, 0.8980392156862745390 ) ;
#169 = VECTOR ( 'NONE', #141, 1000.000000000000000 ) ;
#170 = FILL_AREA_STYLE ('',( #111 ) ) ;
#171 =( NAMED_UNIT ( * ) PLANE_ANGLE_UNIT ( ) SI_UNIT ( $, .RADIAN. ) );
#172 = PRESENTATION_STYLE_ASSIGNMENT (( #143 ) ) ;
#173 = DIRECTION ( 'NONE',  ( 0.000000000000000000, 0.000000000000000000, 1.000000000000000000 ) ) ;
#174 = DIRECTION ( 'NONE',  ( 0.000000000000000000, 0.000000000000000000, 1.000000000000000000 ) ) ;
#175 = SURFACE_SIDE_STYLE ('',( #24 ) ) ;
#176 = AXIS2_PLACEMENT_3D ( 'NONE', #101, #11, #31 ) ;
#177 = VECTOR ( 'NONE', #153, 1000.000000000000000 ) ;
#178 = ADVANCED_BREP_SHAPE_REPRESENTATION ( 'W4', ( #26, #2 ), #166 ) ;
#179 = UNCERTAINTY_MEASURE_WITH_UNIT (LENGTH_MEASURE( 1.000000000000000082E-05 ), #184, 'distance_accuracy_value', 'NONE');
#180 = EDGE_CURVE ( 'NONE', #134, #86, #112, .T. ) ;
#181 = COLOUR_RGB ( '',0.8980392156862745390, 0.8980392156862745390, 0.8980392156862745390 ) ;
#182 = FILL_AREA_STYLE_COLOUR ( '', #158 ) ;
#183 = FACE_OUTER_BOUND ( 'NONE', #118, .T. ) ;
#184 =( LENGTH_UNIT ( ) NAMED_UNIT ( * ) SI_UNIT ( .MILLI., .METRE. ) );
#185 = DIRECTION ( 'NONE',  ( -1.000000000000000000, 0.000000000000000000, 0.000000000000000000 ) ) ;
#186 = STYLED_ITEM ( 'NONE', ( #77 ), #110 ) ;
#187 = SURFACE_SIDE_STYLE ('',( #7 ) ) ;
#188 = CARTESIAN_POINT ( 'NONE',  ( 0.000000000000000000, 0.000000000000000000, 500.0000000000000000 ) ) ;
#189 = FILL_AREA_STYLE_COLOUR ( '', #99 ) ;
#190 = UNCERTAINTY_MEASURE_WITH_UNIT (LENGTH_MEASURE( 1.000000000000000082E-05 ), #35, 'distance_accuracy_value', 'NONE');
#191 = FILL_AREA_STYLE ('',( #189 ) ) ;
#192 = STYLED_ITEM ( 'NONE', ( #96 ), #178 ) ;
#193 = PRODUCT_DEFINITION_FORMATION_WITH_SPECIFIED_SOURCE ( 'ANY', '', #124, .NOT_KNOWN. ) ;
#194 = CIRCLE ( 'NONE', #54, 2.000000000000000000 ) ;
#195 = PRESENTATION_LAYER_ASSIGNMENT (  '', '', ( #186 ) ) ;
#196 = ORIENTED_EDGE ( 'NONE', *, *, #108, .T. ) ;
#197 = PRESENTATION_STYLE_ASSIGNMENT (( #40 ) ) ;
#198 = ORIENTED_EDGE ( 'NONE', *, *, #106, .F. ) ;
#199 = FILL_AREA_STYLE ('',( #28 ) ) ;
#200 = CIRCLE ( 'NONE', #19, 2.000000000000000000 ) ;
ENDSEC;
END-ISO-10303-21;
