ISO-10303-21;
HEADER;
FILE_DESCRIPTION (( 'STEP AP214' ),
    '1' );
FILE_NAME ('W70.STEP',
    '2021-12-29T08:14:16',
    ( '' ),
    ( '' ),
    'SwSTEP 2.0',
    'SolidWorks 2020',
    '' );
FILE_SCHEMA (( 'AUTOMOTIVE_DESIGN' ));
ENDSEC;

DATA;
#1 = MECHANICAL_DESIGN_GEOMETRIC_PRESENTATION_REPRESENTATION (  '', ( #52 ), #7 ) ;
#2 = ORIENTED_EDGE ( 'NONE', *, *, #19, .F. ) ;
#3 = ORIENTED_EDGE ( 'NONE', *, *, #134, .F. ) ;
#4 = CARTESIAN_POINT ( 'NONE',  ( 0.000000000000000000, 0.000000000000000000, 3000.000000000000000 ) ) ;
#5 = FILL_AREA_STYLE ('',( #42 ) ) ;
#6 = PRESENTATION_STYLE_ASSIGNMENT (( #107 ) ) ;
#7 =( GEOMETRIC_REPRESENTATION_CONTEXT ( 3 ) GLOBAL_UNCERTAINTY_ASSIGNED_CONTEXT ( ( #18 ) ) GLOBAL_UNIT_ASSIGNED_CONTEXT ( ( #126, #83, #47 ) ) REPRESENTATION_CONTEXT ( 'NONE', 'WORKASPACE' ) );
#8 = FACE_OUTER_BOUND ( 'NONE', #79, .T. ) ;
#9 = DIRECTION ( 'NONE',  ( 1.000000000000000000, 0.000000000000000000, 0.000000000000000000 ) ) ;
#10 = STYLED_ITEM ( 'NONE', ( #138 ), #135 ) ;
#11 = UNCERTAINTY_MEASURE_WITH_UNIT (LENGTH_MEASURE( 1.000000000000000082E-05 ), #35, 'distance_accuracy_value', 'NONE');
#12 = VERTEX_POINT ( 'NONE', #68 ) ;
#13 = ORIENTED_EDGE ( 'NONE', *, *, #71, .T. ) ;
#14 = PRODUCT_DEFINITION_SHAPE ( 'NONE', 'NONE',  #28 ) ;
#15 = PRESENTATION_LAYER_ASSIGNMENT (  '', '', ( #52 ) ) ;
#16 =( NAMED_UNIT ( * ) PLANE_ANGLE_UNIT ( ) SI_UNIT ( $, .RADIAN. ) );
#17 = FILL_AREA_STYLE_COLOUR ( '', #98 ) ;
#18 = UNCERTAINTY_MEASURE_WITH_UNIT (LENGTH_MEASURE( 1.000000000000000082E-05 ), #126, 'distance_accuracy_value', 'NONE');
#19 = EDGE_CURVE ( 'NONE', #78, #30, #102, .T. ) ;
#20 = DIRECTION ( 'NONE',  ( -1.000000000000000000, 0.000000000000000000, 0.000000000000000000 ) ) ;
#21 = PRODUCT ( 'W70', 'W70', '', ( #59 ) ) ;
#22 = PRODUCT_RELATED_PRODUCT_CATEGORY ( 'part', '', ( #21 ) ) ;
#23 = ORIENTED_EDGE ( 'NONE', *, *, #19, .T. ) ;
#24 = CARTESIAN_POINT ( 'NONE',  ( 0.000000000000000000, 0.000000000000000000, 0.000000000000000000 ) ) ;
#25 =( LENGTH_UNIT ( ) NAMED_UNIT ( * ) SI_UNIT ( .MILLI., .METRE. ) );
#26 =( NAMED_UNIT ( * ) SI_UNIT ( $, .STERADIAN. ) SOLID_ANGLE_UNIT ( ) );
#27 = DIRECTION ( 'NONE',  ( -0.000000000000000000, -0.000000000000000000, -1.000000000000000000 ) ) ;
#28 = PRODUCT_DEFINITION ( 'UNKNOWN', '', #109, #132 ) ;
#29 = AXIS2_PLACEMENT_3D ( 'NONE', #24, #139, #130 ) ;
#30 = VERTEX_POINT ( 'NONE', #127 ) ;
#31 = DIRECTION ( 'NONE',  ( 1.000000000000000000, 0.000000000000000000, -0.000000000000000000 ) ) ;
#32 = EDGE_CURVE ( 'NONE', #12, #54, #53, .T. ) ;
#33 =( NAMED_UNIT ( * ) SI_UNIT ( $, .STERADIAN. ) SOLID_ANGLE_UNIT ( ) );
#34 = VECTOR ( 'NONE', #61, 1000.000000000000000 ) ;
#35 =( LENGTH_UNIT ( ) NAMED_UNIT ( * ) SI_UNIT ( .MILLI., .METRE. ) );
#36 = FACE_OUTER_BOUND ( 'NONE', #65, .T. ) ;
#37 = DIRECTION ( 'NONE',  ( 1.000000000000000000, 0.000000000000000000, 0.000000000000000000 ) ) ;
#38 = ORIENTED_EDGE ( 'NONE', *, *, #87, .F. ) ;
#39 = CIRCLE ( 'NONE', #91, 35.00000000000000711 ) ;
#40 = AXIS2_PLACEMENT_3D ( 'NONE', #48, #27, #94 ) ;
#41 = ADVANCED_FACE ( 'NONE', ( #60 ), #76, .T. ) ;
#42 = FILL_AREA_STYLE_COLOUR ( '', #118 ) ;
#43 = ADVANCED_FACE ( 'NONE', ( #36 ), #72, .T. ) ;
#44 = CARTESIAN_POINT ( 'NONE',  ( 0.000000000000000000, 0.000000000000000000, 3000.000000000000000 ) ) ;
#45 = PRESENTATION_LAYER_ASSIGNMENT (  '', '', ( #10 ) ) ;
#46 =( NAMED_UNIT ( * ) PLANE_ANGLE_UNIT ( ) SI_UNIT ( $, .RADIAN. ) );
#47 =( NAMED_UNIT ( * ) SI_UNIT ( $, .STERADIAN. ) SOLID_ANGLE_UNIT ( ) );
#48 = CARTESIAN_POINT ( 'NONE',  ( 0.000000000000000000, 0.000000000000000000, 3000.000000000000000 ) ) ;
#49 = CYLINDRICAL_SURFACE ( 'NONE', #55, 35.00000000000000711 ) ;
#50 = ORIENTED_EDGE ( 'NONE', *, *, #32, .T. ) ;
#51 = DIRECTION ( 'NONE',  ( -0.000000000000000000, -0.000000000000000000, -1.000000000000000000 ) ) ;
#52 = STYLED_ITEM ( 'NONE', ( #6 ), #99 ) ;
#53 = CIRCLE ( 'NONE', #104, 35.00000000000000711 ) ;
#54 = VERTEX_POINT ( 'NONE', #74 ) ;
#55 = AXIS2_PLACEMENT_3D ( 'NONE', #133, #51, #20 ) ;
#56 = SURFACE_STYLE_USAGE ( .BOTH. , #129 ) ;
#57 = APPLICATION_CONTEXT ( 'automotive_design' ) ;
#58 = SURFACE_SIDE_STYLE ('',( #105 ) ) ;
#59 = PRODUCT_CONTEXT ( 'NONE', #57, 'mechanical' ) ;
#60 = FACE_OUTER_BOUND ( 'NONE', #70, .T. ) ;
#61 = DIRECTION ( 'NONE',  ( -0.000000000000000000, -0.000000000000000000, -1.000000000000000000 ) ) ;
#62 = DIRECTION ( 'NONE',  ( 0.000000000000000000, 0.000000000000000000, 1.000000000000000000 ) ) ;
#63 =( GEOMETRIC_REPRESENTATION_CONTEXT ( 3 ) GLOBAL_UNCERTAINTY_ASSIGNED_CONTEXT ( ( #100 ) ) GLOBAL_UNIT_ASSIGNED_CONTEXT ( ( #25, #46, #26 ) ) REPRESENTATION_CONTEXT ( 'NONE', 'WORKASPACE' ) );
#64 = VECTOR ( 'NONE', #69, 1000.000000000000000 ) ;
#65 = EDGE_LOOP ( 'NONE', ( #112, #50 ) ) ;
#66 =( GEOMETRIC_REPRESENTATION_CONTEXT ( 3 ) GLOBAL_UNCERTAINTY_ASSIGNED_CONTEXT ( ( #11 ) ) GLOBAL_UNIT_ASSIGNED_CONTEXT ( ( #35, #16, #33 ) ) REPRESENTATION_CONTEXT ( 'NONE', 'WORKASPACE' ) );
#67 = CARTESIAN_POINT ( 'NONE',  ( 0.000000000000000000, 0.000000000000000000, 0.000000000000000000 ) ) ;
#68 = CARTESIAN_POINT ( 'NONE',  ( 35.00000000000000711, 4.286263797015737285E-15, 3000.000000000000000 ) ) ;
#69 = DIRECTION ( 'NONE',  ( -0.000000000000000000, -0.000000000000000000, -1.000000000000000000 ) ) ;
#70 = EDGE_LOOP ( 'NONE', ( #111, #89, #90, #81 ) ) ;
#71 = EDGE_CURVE ( 'NONE', #12, #78, #117, .T. ) ;
#72 = PLANE ( 'NONE',  #77 ) ;
#73 = APPLICATION_PROTOCOL_DEFINITION ( 'draft international standard', 'automotive_design', 1998, #57 ) ;
#74 = CARTESIAN_POINT ( 'NONE',  ( -35.00000000000000711, 0.000000000000000000, 3000.000000000000000 ) ) ;
#75 = DIRECTION ( 'NONE',  ( 0.000000000000000000, 0.000000000000000000, 1.000000000000000000 ) ) ;
#76 = CYLINDRICAL_SURFACE ( 'NONE', #40, 35.00000000000000711 ) ;
#77 = AXIS2_PLACEMENT_3D ( 'NONE', #119, #85, #84 ) ;
#78 = VERTEX_POINT ( 'NONE', #110 ) ;
#79 = EDGE_LOOP ( 'NONE', ( #103, #13, #23, #38 ) ) ;
#80 = LINE ( 'NONE', #123, #64 ) ;
#81 = ORIENTED_EDGE ( 'NONE', *, *, #134, .T. ) ;
#82 = ADVANCED_FACE ( 'NONE', ( #8 ), #49, .T. ) ;
#83 =( NAMED_UNIT ( * ) PLANE_ANGLE_UNIT ( ) SI_UNIT ( $, .RADIAN. ) );
#84 = DIRECTION ( 'NONE',  ( 1.000000000000000000, 0.000000000000000000, -0.000000000000000000 ) ) ;
#85 = DIRECTION ( 'NONE',  ( 0.000000000000000000, 0.000000000000000000, 1.000000000000000000 ) ) ;
#86 = DIRECTION ( 'NONE',  ( 0.000000000000000000, 0.000000000000000000, 1.000000000000000000 ) ) ;
#87 = EDGE_CURVE ( 'NONE', #54, #30, #80, .T. ) ;
#88 = EDGE_LOOP ( 'NONE', ( #3, #2 ) ) ;
#89 = ORIENTED_EDGE ( 'NONE', *, *, #122, .F. ) ;
#90 = ORIENTED_EDGE ( 'NONE', *, *, #87, .T. ) ;
#91 = AXIS2_PLACEMENT_3D ( 'NONE', #4, #75, #96 ) ;
#92 = FILL_AREA_STYLE ('',( #17 ) ) ;
#93 = DIRECTION ( 'NONE',  ( 0.000000000000000000, 0.000000000000000000, 1.000000000000000000 ) ) ;
#94 = DIRECTION ( 'NONE',  ( -1.000000000000000000, 0.000000000000000000, 0.000000000000000000 ) ) ;
#95 = CLOSED_SHELL ( 'NONE', ( #82, #41, #43, #97 ) ) ;
#96 = DIRECTION ( 'NONE',  ( 1.000000000000000000, 0.000000000000000000, 0.000000000000000000 ) ) ;
#97 = ADVANCED_FACE ( 'NONE', ( #106 ), #108, .F. ) ;
#98 = COLOUR_RGB ( '',0.7921568627450980005, 0.8196078431372548767, 0.9333333333333333481 ) ;
#99 = MANIFOLD_SOLID_BREP ( 'Boss-Extrude1', #95 ) ;
#100 = UNCERTAINTY_MEASURE_WITH_UNIT (LENGTH_MEASURE( 1.000000000000000082E-05 ), #25, 'distance_accuracy_value', 'NONE');
#101 = AXIS2_PLACEMENT_3D ( 'NONE', #136, #86, #31 ) ;
#102 = CIRCLE ( 'NONE', #120, 35.00000000000000711 ) ;
#103 = ORIENTED_EDGE ( 'NONE', *, *, #32, .F. ) ;
#104 = AXIS2_PLACEMENT_3D ( 'NONE', #44, #131, #37 ) ;
#105 = SURFACE_STYLE_FILL_AREA ( #5 ) ;
#106 = FACE_OUTER_BOUND ( 'NONE', #88, .T. ) ;
#107 = SURFACE_STYLE_USAGE ( .BOTH. , #58 ) ;
#108 = PLANE ( 'NONE',  #101 ) ;
#109 = PRODUCT_DEFINITION_FORMATION_WITH_SPECIFIED_SOURCE ( 'ANY', '', #21, .NOT_KNOWN. ) ;
#110 = CARTESIAN_POINT ( 'NONE',  ( 35.00000000000000711, 4.286263797015737285E-15, 0.000000000000000000 ) ) ;
#111 = ORIENTED_EDGE ( 'NONE', *, *, #71, .F. ) ;
#112 = ORIENTED_EDGE ( 'NONE', *, *, #122, .T. ) ;
#113 = CIRCLE ( 'NONE', #29, 35.00000000000000711 ) ;
#114 = SHAPE_DEFINITION_REPRESENTATION ( #14, #135 ) ;
#115 = MECHANICAL_DESIGN_GEOMETRIC_PRESENTATION_REPRESENTATION (  '', ( #10 ), #63 ) ;
#116 = SURFACE_STYLE_FILL_AREA ( #92 ) ;
#117 = LINE ( 'NONE', #128, #34 ) ;
#118 = COLOUR_RGB ( '',0.7921568627450980005, 0.8196078431372548767, 0.9333333333333333481 ) ;
#119 = CARTESIAN_POINT ( 'NONE',  ( 0.000000000000000000, 0.000000000000000000, 3000.000000000000000 ) ) ;
#120 = AXIS2_PLACEMENT_3D ( 'NONE', #67, #93, #125 ) ;
#121 = APPLICATION_CONTEXT ( 'automotive_design' ) ;
#122 = EDGE_CURVE ( 'NONE', #54, #12, #39, .T. ) ;
#123 = CARTESIAN_POINT ( 'NONE',  ( -35.00000000000000711, 0.000000000000000000, 3000.000000000000000 ) ) ;
#124 = AXIS2_PLACEMENT_3D ( 'NONE', #140, #62, #9 ) ;
#125 = DIRECTION ( 'NONE',  ( 1.000000000000000000, 0.000000000000000000, 0.000000000000000000 ) ) ;
#126 =( LENGTH_UNIT ( ) NAMED_UNIT ( * ) SI_UNIT ( .MILLI., .METRE. ) );
#127 = CARTESIAN_POINT ( 'NONE',  ( -35.00000000000000711, 0.000000000000000000, 0.000000000000000000 ) ) ;
#128 = CARTESIAN_POINT ( 'NONE',  ( 35.00000000000000711, 4.286263797015737285E-15, 3000.000000000000000 ) ) ;
#129 = SURFACE_SIDE_STYLE ('',( #116 ) ) ;
#130 = DIRECTION ( 'NONE',  ( 1.000000000000000000, 0.000000000000000000, 0.000000000000000000 ) ) ;
#131 = DIRECTION ( 'NONE',  ( 0.000000000000000000, 0.000000000000000000, 1.000000000000000000 ) ) ;
#132 = PRODUCT_DEFINITION_CONTEXT ( 'detailed design', #121, 'design' ) ;
#133 = CARTESIAN_POINT ( 'NONE',  ( 0.000000000000000000, 0.000000000000000000, 3000.000000000000000 ) ) ;
#134 = EDGE_CURVE ( 'NONE', #30, #78, #113, .T. ) ;
#135 = ADVANCED_BREP_SHAPE_REPRESENTATION ( 'W70', ( #99, #124 ), #66 ) ;
#136 = CARTESIAN_POINT ( 'NONE',  ( 0.000000000000000000, 0.000000000000000000, 0.000000000000000000 ) ) ;
#137 = APPLICATION_PROTOCOL_DEFINITION ( 'draft international standard', 'automotive_design', 1998, #121 ) ;
#138 = PRESENTATION_STYLE_ASSIGNMENT (( #56 ) ) ;
#139 = DIRECTION ( 'NONE',  ( 0.000000000000000000, 0.000000000000000000, 1.000000000000000000 ) ) ;
#140 = CARTESIAN_POINT ( 'NONE',  ( 0.000000000000000000, 0.000000000000000000, 0.000000000000000000 ) ) ;
ENDSEC;
END-ISO-10303-21;
