ISO-10303-21;
HEADER;
FILE_DESCRIPTION (( 'STEP AP214' ),
    '1' );
FILE_NAME ('W24.STEP',
    '2021-12-29T08:09:01',
    ( '' ),
    ( '' ),
    'SwSTEP 2.0',
    'SolidWorks 2020',
    '' );
FILE_SCHEMA (( 'AUTOMOTIVE_DESIGN' ));
ENDSEC;

DATA;
#1 = EDGE_CURVE ( 'NONE', #54, #46, #59, .T. ) ;
#2 = COLOUR_RGB ( '',0.7921568627450980005, 0.8196078431372548767, 0.9333333333333333481 ) ;
#3 = DIRECTION ( 'NONE',  ( 0.000000000000000000, 0.000000000000000000, 1.000000000000000000 ) ) ;
#4 = LINE ( 'NONE', #5, #91 ) ;
#5 = CARTESIAN_POINT ( 'NONE',  ( 12.00000000000000178, 1.469576158976824144E-15, 1000.000000000000000 ) ) ;
#6 =( LENGTH_UNIT ( ) NAMED_UNIT ( * ) SI_UNIT ( .MILLI., .METRE. ) );
#7 = PRODUCT_DEFINITION ( 'UNKNOWN', '', #112, #105 ) ;
#8 = STYLED_ITEM ( 'NONE', ( #97 ), #110 ) ;
#9 = MECHANICAL_DESIGN_GEOMETRIC_PRESENTATION_REPRESENTATION (  '', ( #76 ), #70 ) ;
#10 = APPLICATION_CONTEXT ( 'automotive_design' ) ;
#11 = AXIS2_PLACEMENT_3D ( 'NONE', #48, #41, #82 ) ;
#12 = ORIENTED_EDGE ( 'NONE', *, *, #103, .F. ) ;
#13 = FILL_AREA_STYLE_COLOUR ( '', #2 ) ;
#14 =( LENGTH_UNIT ( ) NAMED_UNIT ( * ) SI_UNIT ( .MILLI., .METRE. ) );
#15 = FACE_OUTER_BOUND ( 'NONE', #109, .T. ) ;
#16 = CARTESIAN_POINT ( 'NONE',  ( -12.00000000000000178, 0.000000000000000000, 1000.000000000000000 ) ) ;
#17 = CARTESIAN_POINT ( 'NONE',  ( 0.000000000000000000, 0.000000000000000000, 1000.000000000000000 ) ) ;
#18 = ADVANCED_FACE ( 'NONE', ( #39 ), #27, .T. ) ;
#19 = APPLICATION_CONTEXT ( 'automotive_design' ) ;
#20 = AXIS2_PLACEMENT_3D ( 'NONE', #137, #138, #53 ) ;
#21 =( NAMED_UNIT ( * ) PLANE_ANGLE_UNIT ( ) SI_UNIT ( $, .RADIAN. ) );
#22 = AXIS2_PLACEMENT_3D ( 'NONE', #120, #3, #124 ) ;
#23 = EDGE_LOOP ( 'NONE', ( #108, #90 ) ) ;
#24 = ORIENTED_EDGE ( 'NONE', *, *, #30, .F. ) ;
#25 = SURFACE_SIDE_STYLE ('',( #113 ) ) ;
#26 =( GEOMETRIC_REPRESENTATION_CONTEXT ( 3 ) GLOBAL_UNCERTAINTY_ASSIGNED_CONTEXT ( ( #36 ) ) GLOBAL_UNIT_ASSIGNED_CONTEXT ( ( #75, #21, #64 ) ) REPRESENTATION_CONTEXT ( 'NONE', 'WORKASPACE' ) );
#27 = CYLINDRICAL_SURFACE ( 'NONE', #98, 12.00000000000000178 ) ;
#28 = DIRECTION ( 'NONE',  ( 1.000000000000000000, 0.000000000000000000, -0.000000000000000000 ) ) ;
#29 = DIRECTION ( 'NONE',  ( -1.000000000000000000, 0.000000000000000000, 0.000000000000000000 ) ) ;
#30 = EDGE_CURVE ( 'NONE', #139, #140, #121, .T. ) ;
#31 = SURFACE_SIDE_STYLE ('',( #127 ) ) ;
#32 =( NAMED_UNIT ( * ) PLANE_ANGLE_UNIT ( ) SI_UNIT ( $, .RADIAN. ) );
#33 = ORIENTED_EDGE ( 'NONE', *, *, #103, .T. ) ;
#34 = AXIS2_PLACEMENT_3D ( 'NONE', #17, #42, #104 ) ;
#35 = ORIENTED_EDGE ( 'NONE', *, *, #119, .F. ) ;
#36 = UNCERTAINTY_MEASURE_WITH_UNIT (LENGTH_MEASURE( 1.000000000000000082E-05 ), #75, 'distance_accuracy_value', 'NONE');
#37 = VECTOR ( 'NONE', #61, 1000.000000000000000 ) ;
#38 = CARTESIAN_POINT ( 'NONE',  ( 0.000000000000000000, 0.000000000000000000, 0.000000000000000000 ) ) ;
#39 = FACE_OUTER_BOUND ( 'NONE', #77, .T. ) ;
#40 = DIRECTION ( 'NONE',  ( 0.000000000000000000, 0.000000000000000000, 1.000000000000000000 ) ) ;
#41 = DIRECTION ( 'NONE',  ( 0.000000000000000000, 0.000000000000000000, 1.000000000000000000 ) ) ;
#42 = DIRECTION ( 'NONE',  ( 0.000000000000000000, 0.000000000000000000, 1.000000000000000000 ) ) ;
#43 = SHAPE_DEFINITION_REPRESENTATION ( #92, #110 ) ;
#44 = ORIENTED_EDGE ( 'NONE', *, *, #73, .T. ) ;
#45 = AXIS2_PLACEMENT_3D ( 'NONE', #93, #40, #72 ) ;
#46 = VERTEX_POINT ( 'NONE', #58 ) ;
#47 = CLOSED_SHELL ( 'NONE', ( #78, #18, #136, #106 ) ) ;
#48 = CARTESIAN_POINT ( 'NONE',  ( 0.000000000000000000, 0.000000000000000000, 1000.000000000000000 ) ) ;
#49 = SURFACE_STYLE_USAGE ( .BOTH. , #25 ) ;
#50 = DIRECTION ( 'NONE',  ( -0.000000000000000000, -0.000000000000000000, -1.000000000000000000 ) ) ;
#51 = UNCERTAINTY_MEASURE_WITH_UNIT (LENGTH_MEASURE( 1.000000000000000082E-05 ), #6, 'distance_accuracy_value', 'NONE');
#52 = PRODUCT_RELATED_PRODUCT_CATEGORY ( 'part', '', ( #56 ) ) ;
#53 = DIRECTION ( 'NONE',  ( 1.000000000000000000, 0.000000000000000000, 0.000000000000000000 ) ) ;
#54 = VERTEX_POINT ( 'NONE', #134 ) ;
#55 = EDGE_LOOP ( 'NONE', ( #35, #44, #131, #12 ) ) ;
#56 = PRODUCT ( 'W24', 'W24', '', ( #88 ) ) ;
#57 = COLOUR_RGB ( '',0.7921568627450980005, 0.8196078431372548767, 0.9333333333333333481 ) ;
#58 = CARTESIAN_POINT ( 'NONE',  ( 12.00000000000000178, 1.469576158976824144E-15, 1000.000000000000000 ) ) ;
#59 = CIRCLE ( 'NONE', #22, 12.00000000000000178 ) ;
#60 = AXIS2_PLACEMENT_3D ( 'NONE', #95, #100, #29 ) ;
#61 = DIRECTION ( 'NONE',  ( -0.000000000000000000, -0.000000000000000000, -1.000000000000000000 ) ) ;
#62 = CARTESIAN_POINT ( 'NONE',  ( -12.00000000000000178, 0.000000000000000000, 0.000000000000000000 ) ) ;
#63 = AXIS2_PLACEMENT_3D ( 'NONE', #38, #111, #79 ) ;
#64 =( NAMED_UNIT ( * ) SI_UNIT ( $, .STERADIAN. ) SOLID_ANGLE_UNIT ( ) );
#65 = MANIFOLD_SOLID_BREP ( 'Boss-Extrude1', #47 ) ;
#66 = ORIENTED_EDGE ( 'NONE', *, *, #30, .T. ) ;
#67 = PLANE ( 'NONE',  #34 ) ;
#68 = MECHANICAL_DESIGN_GEOMETRIC_PRESENTATION_REPRESENTATION (  '', ( #8 ), #26 ) ;
#69 = FILL_AREA_STYLE ('',( #13 ) ) ;
#70 =( GEOMETRIC_REPRESENTATION_CONTEXT ( 3 ) GLOBAL_UNCERTAINTY_ASSIGNED_CONTEXT ( ( #74 ) ) GLOBAL_UNIT_ASSIGNED_CONTEXT ( ( #14, #133, #81 ) ) REPRESENTATION_CONTEXT ( 'NONE', 'WORKASPACE' ) );
#71 = CYLINDRICAL_SURFACE ( 'NONE', #60, 12.00000000000000178 ) ;
#72 = DIRECTION ( 'NONE',  ( 1.000000000000000000, 0.000000000000000000, 0.000000000000000000 ) ) ;
#73 = EDGE_CURVE ( 'NONE', #46, #140, #4, .T. ) ;
#74 = UNCERTAINTY_MEASURE_WITH_UNIT (LENGTH_MEASURE( 1.000000000000000082E-05 ), #14, 'distance_accuracy_value', 'NONE');
#75 =( LENGTH_UNIT ( ) NAMED_UNIT ( * ) SI_UNIT ( .MILLI., .METRE. ) );
#76 = STYLED_ITEM ( 'NONE', ( #99 ), #65 ) ;
#77 = EDGE_LOOP ( 'NONE', ( #122, #87, #33, #66 ) ) ;
#78 = ADVANCED_FACE ( 'NONE', ( #102 ), #71, .T. ) ;
#79 = DIRECTION ( 'NONE',  ( 1.000000000000000000, 0.000000000000000000, 0.000000000000000000 ) ) ;
#80 = DIRECTION ( 'NONE',  ( -1.000000000000000000, 0.000000000000000000, 0.000000000000000000 ) ) ;
#81 =( NAMED_UNIT ( * ) SI_UNIT ( $, .STERADIAN. ) SOLID_ANGLE_UNIT ( ) );
#82 = DIRECTION ( 'NONE',  ( 1.000000000000000000, 0.000000000000000000, 0.000000000000000000 ) ) ;
#83 = PRESENTATION_LAYER_ASSIGNMENT (  '', '', ( #76 ) ) ;
#84 = CARTESIAN_POINT ( 'NONE',  ( 12.00000000000000178, 1.469576158976824144E-15, 0.000000000000000000 ) ) ;
#85 = CIRCLE ( 'NONE', #11, 12.00000000000000178 ) ;
#86 = CIRCLE ( 'NONE', #45, 12.00000000000000178 ) ;
#87 = ORIENTED_EDGE ( 'NONE', *, *, #1, .F. ) ;
#88 = PRODUCT_CONTEXT ( 'NONE', #10, 'mechanical' ) ;
#89 = PRESENTATION_LAYER_ASSIGNMENT (  '', '', ( #8 ) ) ;
#90 = ORIENTED_EDGE ( 'NONE', *, *, #119, .T. ) ;
#91 = VECTOR ( 'NONE', #50, 1000.000000000000000 ) ;
#92 = PRODUCT_DEFINITION_SHAPE ( 'NONE', 'NONE',  #7 ) ;
#93 = CARTESIAN_POINT ( 'NONE',  ( 0.000000000000000000, 0.000000000000000000, 0.000000000000000000 ) ) ;
#94 = CARTESIAN_POINT ( 'NONE',  ( 0.000000000000000000, 0.000000000000000000, 1000.000000000000000 ) ) ;
#95 = CARTESIAN_POINT ( 'NONE',  ( 0.000000000000000000, 0.000000000000000000, 1000.000000000000000 ) ) ;
#96 =( NAMED_UNIT ( * ) SI_UNIT ( $, .STERADIAN. ) SOLID_ANGLE_UNIT ( ) );
#97 = PRESENTATION_STYLE_ASSIGNMENT (( #116 ) ) ;
#98 = AXIS2_PLACEMENT_3D ( 'NONE', #94, #123, #80 ) ;
#99 = PRESENTATION_STYLE_ASSIGNMENT (( #49 ) ) ;
#100 = DIRECTION ( 'NONE',  ( -0.000000000000000000, -0.000000000000000000, -1.000000000000000000 ) ) ;
#101 = DIRECTION ( 'NONE',  ( 0.000000000000000000, 0.000000000000000000, 1.000000000000000000 ) ) ;
#102 = FACE_OUTER_BOUND ( 'NONE', #55, .T. ) ;
#103 = EDGE_CURVE ( 'NONE', #54, #139, #114, .T. ) ;
#104 = DIRECTION ( 'NONE',  ( 1.000000000000000000, 0.000000000000000000, -0.000000000000000000 ) ) ;
#105 = PRODUCT_DEFINITION_CONTEXT ( 'detailed design', #19, 'design' ) ;
#106 = ADVANCED_FACE ( 'NONE', ( #15 ), #135, .F. ) ;
#107 = APPLICATION_PROTOCOL_DEFINITION ( 'draft international standard', 'automotive_design', 1998, #10 ) ;
#108 = ORIENTED_EDGE ( 'NONE', *, *, #1, .T. ) ;
#109 = EDGE_LOOP ( 'NONE', ( #24, #129 ) ) ;
#110 = ADVANCED_BREP_SHAPE_REPRESENTATION ( 'W24', ( #65, #20 ), #125 ) ;
#111 = DIRECTION ( 'NONE',  ( 0.000000000000000000, 0.000000000000000000, 1.000000000000000000 ) ) ;
#112 = PRODUCT_DEFINITION_FORMATION_WITH_SPECIFIED_SOURCE ( 'ANY', '', #56, .NOT_KNOWN. ) ;
#113 = SURFACE_STYLE_FILL_AREA ( #69 ) ;
#114 = LINE ( 'NONE', #16, #37 ) ;
#115 = FACE_OUTER_BOUND ( 'NONE', #23, .T. ) ;
#116 = SURFACE_STYLE_USAGE ( .BOTH. , #31 ) ;
#117 = FILL_AREA_STYLE ('',( #128 ) ) ;
#118 = AXIS2_PLACEMENT_3D ( 'NONE', #126, #101, #28 ) ;
#119 = EDGE_CURVE ( 'NONE', #46, #54, #85, .T. ) ;
#120 = CARTESIAN_POINT ( 'NONE',  ( 0.000000000000000000, 0.000000000000000000, 1000.000000000000000 ) ) ;
#121 = CIRCLE ( 'NONE', #63, 12.00000000000000178 ) ;
#122 = ORIENTED_EDGE ( 'NONE', *, *, #73, .F. ) ;
#123 = DIRECTION ( 'NONE',  ( -0.000000000000000000, -0.000000000000000000, -1.000000000000000000 ) ) ;
#124 = DIRECTION ( 'NONE',  ( 1.000000000000000000, 0.000000000000000000, 0.000000000000000000 ) ) ;
#125 =( GEOMETRIC_REPRESENTATION_CONTEXT ( 3 ) GLOBAL_UNCERTAINTY_ASSIGNED_CONTEXT ( ( #51 ) ) GLOBAL_UNIT_ASSIGNED_CONTEXT ( ( #6, #32, #96 ) ) REPRESENTATION_CONTEXT ( 'NONE', 'WORKASPACE' ) );
#126 = CARTESIAN_POINT ( 'NONE',  ( 0.000000000000000000, 0.000000000000000000, 0.000000000000000000 ) ) ;
#127 = SURFACE_STYLE_FILL_AREA ( #117 ) ;
#128 = FILL_AREA_STYLE_COLOUR ( '', #57 ) ;
#129 = ORIENTED_EDGE ( 'NONE', *, *, #132, .F. ) ;
#130 = APPLICATION_PROTOCOL_DEFINITION ( 'draft international standard', 'automotive_design', 1998, #19 ) ;
#131 = ORIENTED_EDGE ( 'NONE', *, *, #132, .T. ) ;
#132 = EDGE_CURVE ( 'NONE', #140, #139, #86, .T. ) ;
#133 =( NAMED_UNIT ( * ) PLANE_ANGLE_UNIT ( ) SI_UNIT ( $, .RADIAN. ) );
#134 = CARTESIAN_POINT ( 'NONE',  ( -12.00000000000000178, 0.000000000000000000, 1000.000000000000000 ) ) ;
#135 = PLANE ( 'NONE',  #118 ) ;
#136 = ADVANCED_FACE ( 'NONE', ( #115 ), #67, .T. ) ;
#137 = CARTESIAN_POINT ( 'NONE',  ( 0.000000000000000000, 0.000000000000000000, 0.000000000000000000 ) ) ;
#138 = DIRECTION ( 'NONE',  ( 0.000000000000000000, 0.000000000000000000, 1.000000000000000000 ) ) ;
#139 = VERTEX_POINT ( 'NONE', #62 ) ;
#140 = VERTEX_POINT ( 'NONE', #84 ) ;
ENDSEC;
END-ISO-10303-21;
