ISO-10303-21;
HEADER;
FILE_DESCRIPTION (( 'STEP AP214' ),
    '1' );
FILE_NAME ('W18.STEP',
    '2021-12-29T07:52:22',
    ( '' ),
    ( '' ),
    'SwSTEP 2.0',
    'SolidWorks 2020',
    '' );
FILE_SCHEMA (( 'AUTOMOTIVE_DESIGN' ));
ENDSEC;

DATA;
#1 = VERTEX_POINT ( 'NONE', #172 ) ;
#2 = CARTESIAN_POINT ( 'NONE',  ( 0.000000000000000000, 0.000000000000000000, 1000.000000000000000 ) ) ;
#3 = ORIENTED_EDGE ( 'NONE', *, *, #150, .F. ) ;
#4 = PRESENTATION_STYLE_ASSIGNMENT (( #44 ) ) ;
#5 = ORIENTED_EDGE ( 'NONE', *, *, #59, .T. ) ;
#6 =( LENGTH_UNIT ( ) NAMED_UNIT ( * ) SI_UNIT ( .MILLI., .METRE. ) );
#7 = CARTESIAN_POINT ( 'NONE',  ( -9.000000000000000000, 0.000000000000000000, 1000.000000000000000 ) ) ;
#8 = FILL_AREA_STYLE ('',( #74 ) ) ;
#9 = DIRECTION ( 'NONE',  ( 0.000000000000000000, 0.000000000000000000, 1.000000000000000000 ) ) ;
#10 = SURFACE_SIDE_STYLE ('',( #96 ) ) ;
#11 =( GEOMETRIC_REPRESENTATION_CONTEXT ( 3 ) GLOBAL_UNCERTAINTY_ASSIGNED_CONTEXT ( ( #84 ) ) GLOBAL_UNIT_ASSIGNED_CONTEXT ( ( #123, #105, #169 ) ) REPRESENTATION_CONTEXT ( 'NONE', 'WORKASPACE' ) );
#12 = CARTESIAN_POINT ( 'NONE',  ( 0.000000000000000000, 0.000000000000000000, 1000.000000000000000 ) ) ;
#13 = EDGE_CURVE ( 'NONE', #62, #35, #14, .T. ) ;
#14 = CIRCLE ( 'NONE', #89, 9.000000000000000000 ) ;
#15 = DIRECTION ( 'NONE',  ( 0.000000000000000000, 0.000000000000000000, 1.000000000000000000 ) ) ;
#16 = PRODUCT_DEFINITION_SHAPE ( 'NONE', 'NONE',  #24 ) ;
#17 = MECHANICAL_DESIGN_GEOMETRIC_PRESENTATION_REPRESENTATION (  '', ( #167 ), #81 ) ;
#18 = AXIS2_PLACEMENT_3D ( 'NONE', #88, #192, #99 ) ;
#19 = SURFACE_STYLE_FILL_AREA ( #111 ) ;
#20 = MECHANICAL_DESIGN_GEOMETRIC_PRESENTATION_REPRESENTATION (  '', ( #112 ), #135 ) ;
#21 = SURFACE_SIDE_STYLE ('',( #158 ) ) ;
#22 = AXIS2_PLACEMENT_3D ( 'NONE', #32, #37, #69 ) ;
#23 = PRESENTATION_STYLE_ASSIGNMENT (( #166 ) ) ;
#24 = PRODUCT_DEFINITION ( 'UNKNOWN', '', #138, #189 ) ;
#25 = DIRECTION ( 'NONE',  ( -0.000000000000000000, -0.000000000000000000, -1.000000000000000000 ) ) ;
#26 = MECHANICAL_DESIGN_GEOMETRIC_PRESENTATION_REPRESENTATION (  '', ( #49 ), #119 ) ;
#27 = PLANE ( 'NONE',  #198 ) ;
#28 = SURFACE_SIDE_STYLE ('',( #199 ) ) ;
#29 = ORIENTED_EDGE ( 'NONE', *, *, #13, .F. ) ;
#30 = CARTESIAN_POINT ( 'NONE',  ( 0.000000000000000000, 0.000000000000000000, 0.000000000000000000 ) ) ;
#31 = PRESENTATION_LAYER_ASSIGNMENT (  '', '', ( #112 ) ) ;
#32 = CARTESIAN_POINT ( 'NONE',  ( 0.000000000000000000, 0.000000000000000000, 0.000000000000000000 ) ) ;
#33 = ORIENTED_EDGE ( 'NONE', *, *, #194, .T. ) ;
#34 = UNCERTAINTY_MEASURE_WITH_UNIT (LENGTH_MEASURE( 1.000000000000000082E-05 ), #183, 'distance_accuracy_value', 'NONE');
#35 = VERTEX_POINT ( 'NONE', #144 ) ;
#36 = STYLED_ITEM ( 'NONE', ( #190 ), #57 ) ;
#37 = DIRECTION ( 'NONE',  ( 0.000000000000000000, 0.000000000000000000, 1.000000000000000000 ) ) ;
#38 = FACE_OUTER_BOUND ( 'NONE', #110, .T. ) ;
#39 = CYLINDRICAL_SURFACE ( 'NONE', #108, 9.000000000000000000 ) ;
#40 = AXIS2_PLACEMENT_3D ( 'NONE', #131, #9, #193 ) ;
#41 =( GEOMETRIC_REPRESENTATION_CONTEXT ( 3 ) GLOBAL_UNCERTAINTY_ASSIGNED_CONTEXT ( ( #120 ) ) GLOBAL_UNIT_ASSIGNED_CONTEXT ( ( #50, #126, #98 ) ) REPRESENTATION_CONTEXT ( 'NONE', 'WORKASPACE' ) );
#42 = FILL_AREA_STYLE ('',( #76 ) ) ;
#43 = FACE_OUTER_BOUND ( 'NONE', #114, .T. ) ;
#44 = SURFACE_STYLE_USAGE ( .BOTH. , #45 ) ;
#45 = SURFACE_SIDE_STYLE ('',( #184 ) ) ;
#46 = ORIENTED_EDGE ( 'NONE', *, *, #117, .F. ) ;
#47 = ORIENTED_EDGE ( 'NONE', *, *, #59, .F. ) ;
#48 = MANIFOLD_SOLID_BREP ( 'Boss-Extrude1', #94 ) ;
#49 = STYLED_ITEM ( 'NONE', ( #122 ), #186 ) ;
#50 =( LENGTH_UNIT ( ) NAMED_UNIT ( * ) SI_UNIT ( .MILLI., .METRE. ) );
#51 = PRODUCT ( 'W18', 'W18', '', ( #95 ) ) ;
#52 = DIRECTION ( 'NONE',  ( -1.000000000000000000, 0.000000000000000000, 0.000000000000000000 ) ) ;
#53 = APPLICATION_PROTOCOL_DEFINITION ( 'draft international standard', 'automotive_design', 1998, #127 ) ;
#54 = CARTESIAN_POINT ( 'NONE',  ( 9.000000000000000000, 1.102182119232617714E-15, 0.000000000000000000 ) ) ;
#55 = CARTESIAN_POINT ( 'NONE',  ( -9.000000000000000000, 0.000000000000000000, 1000.000000000000000 ) ) ;
#56 = STYLED_ITEM ( 'NONE', ( #156 ), #157 ) ;
#57 = ADVANCED_BREP_SHAPE_REPRESENTATION ( 'W18', ( #48, #22 ), #41 ) ;
#58 = FILL_AREA_STYLE_COLOUR ( '', #85 ) ;
#59 = EDGE_CURVE ( 'NONE', #142, #1, #100, .T. ) ;
#60 =( NAMED_UNIT ( * ) SI_UNIT ( $, .STERADIAN. ) SOLID_ANGLE_UNIT ( ) );
#61 = SURFACE_STYLE_USAGE ( .BOTH. , #102 ) ;
#62 = VERTEX_POINT ( 'NONE', #7 ) ;
#63 = ORIENTED_EDGE ( 'NONE', *, *, #194, .F. ) ;
#64 = COLOUR_RGB ( '',0.8980392156862745390, 0.8980392156862745390, 0.8980392156862745390 ) ;
#65 = CARTESIAN_POINT ( 'NONE',  ( 0.000000000000000000, 0.000000000000000000, 1000.000000000000000 ) ) ;
#66 = SURFACE_STYLE_USAGE ( .BOTH. , #177 ) ;
#67 = CARTESIAN_POINT ( 'NONE',  ( 9.000000000000000000, 1.102182119232617714E-15, 1000.000000000000000 ) ) ;
#68 = FILL_AREA_STYLE_COLOUR ( '', #101 ) ;
#69 = DIRECTION ( 'NONE',  ( 1.000000000000000000, 0.000000000000000000, 0.000000000000000000 ) ) ;
#70 = DIRECTION ( 'NONE',  ( -0.000000000000000000, -0.000000000000000000, -1.000000000000000000 ) ) ;
#71 = DIRECTION ( 'NONE',  ( -0.000000000000000000, -0.000000000000000000, -1.000000000000000000 ) ) ;
#72 = FILL_AREA_STYLE_COLOUR ( '', #64 ) ;
#73 = UNCERTAINTY_MEASURE_WITH_UNIT (LENGTH_MEASURE( 1.000000000000000082E-05 ), #6, 'distance_accuracy_value', 'NONE');
#74 = FILL_AREA_STYLE_COLOUR ( '', #197 ) ;
#75 = LINE ( 'NONE', #67, #87 ) ;
#76 = FILL_AREA_STYLE_COLOUR ( '', #104 ) ;
#77 =( LENGTH_UNIT ( ) NAMED_UNIT ( * ) SI_UNIT ( .MILLI., .METRE. ) );
#78 = FILL_AREA_STYLE ('',( #137 ) ) ;
#79 = DIRECTION ( 'NONE',  ( 1.000000000000000000, 0.000000000000000000, -0.000000000000000000 ) ) ;
#80 = PRODUCT_RELATED_PRODUCT_CATEGORY ( 'part', '', ( #51 ) ) ;
#81 =( GEOMETRIC_REPRESENTATION_CONTEXT ( 3 ) GLOBAL_UNCERTAINTY_ASSIGNED_CONTEXT ( ( #146 ) ) GLOBAL_UNIT_ASSIGNED_CONTEXT ( ( #103, #170, #90 ) ) REPRESENTATION_CONTEXT ( 'NONE', 'WORKASPACE' ) );
#82 = EDGE_LOOP ( 'NONE', ( #3, #47 ) ) ;
#83 =( NAMED_UNIT ( * ) SI_UNIT ( $, .STERADIAN. ) SOLID_ANGLE_UNIT ( ) );
#84 = UNCERTAINTY_MEASURE_WITH_UNIT (LENGTH_MEASURE( 1.000000000000000082E-05 ), #123, 'distance_accuracy_value', 'NONE');
#85 = COLOUR_RGB ( '',0.7921568627450980005, 0.8196078431372548767, 0.9333333333333333481 ) ;
#86 = FACE_OUTER_BOUND ( 'NONE', #141, .T. ) ;
#87 = VECTOR ( 'NONE', #71, 1000.000000000000000 ) ;
#88 = CARTESIAN_POINT ( 'NONE',  ( 0.000000000000000000, 0.000000000000000000, 1000.000000000000000 ) ) ;
#89 = AXIS2_PLACEMENT_3D ( 'NONE', #65, #113, #174 ) ;
#90 =( NAMED_UNIT ( * ) SI_UNIT ( $, .STERADIAN. ) SOLID_ANGLE_UNIT ( ) );
#91 = APPLICATION_CONTEXT ( 'automotive_design' ) ;
#92 = ADVANCED_FACE ( 'NONE', ( #38 ), #39, .T. ) ;
#93 = DIRECTION ( 'NONE',  ( 0.000000000000000000, 0.000000000000000000, 1.000000000000000000 ) ) ;
#94 = CLOSED_SHELL ( 'NONE', ( #92, #157, #173, #186 ) ) ;
#95 = PRODUCT_CONTEXT ( 'NONE', #127, 'mechanical' ) ;
#96 = SURFACE_STYLE_FILL_AREA ( #129 ) ;
#97 = APPLICATION_PROTOCOL_DEFINITION ( 'draft international standard', 'automotive_design', 1998, #91 ) ;
#98 =( NAMED_UNIT ( * ) SI_UNIT ( $, .STERADIAN. ) SOLID_ANGLE_UNIT ( ) );
#99 = DIRECTION ( 'NONE',  ( 1.000000000000000000, 0.000000000000000000, 0.000000000000000000 ) ) ;
#100 = CIRCLE ( 'NONE', #40, 9.000000000000000000 ) ;
#101 = COLOUR_RGB ( '',0.7921568627450980005, 0.8196078431372548767, 0.9333333333333333481 ) ;
#102 = SURFACE_SIDE_STYLE ('',( #182 ) ) ;
#103 =( LENGTH_UNIT ( ) NAMED_UNIT ( * ) SI_UNIT ( .MILLI., .METRE. ) );
#104 = COLOUR_RGB ( '',0.8980392156862745390, 0.8980392156862745390, 0.8980392156862745390 ) ;
#105 =( NAMED_UNIT ( * ) PLANE_ANGLE_UNIT ( ) SI_UNIT ( $, .RADIAN. ) );
#106 = DIRECTION ( 'NONE',  ( 1.000000000000000000, 0.000000000000000000, -0.000000000000000000 ) ) ;
#107 = ORIENTED_EDGE ( 'NONE', *, *, #130, .F. ) ;
#108 = AXIS2_PLACEMENT_3D ( 'NONE', #145, #148, #52 ) ;
#109 = PLANE ( 'NONE',  #128 ) ;
#110 = EDGE_LOOP ( 'NONE', ( #107, #33, #5, #46 ) ) ;
#111 = FILL_AREA_STYLE ('',( #68 ) ) ;
#112 = STYLED_ITEM ( 'NONE', ( #23 ), #48 ) ;
#113 = DIRECTION ( 'NONE',  ( 0.000000000000000000, 0.000000000000000000, 1.000000000000000000 ) ) ;
#114 = EDGE_LOOP ( 'NONE', ( #155, #176 ) ) ;
#115 = MECHANICAL_DESIGN_GEOMETRIC_PRESENTATION_REPRESENTATION (  '', ( #36 ), #165 ) ;
#116 = CARTESIAN_POINT ( 'NONE',  ( 0.000000000000000000, 0.000000000000000000, 0.000000000000000000 ) ) ;
#117 = EDGE_CURVE ( 'NONE', #62, #1, #151, .T. ) ;
#118 = SURFACE_STYLE_USAGE ( .BOTH. , #21 ) ;
#119 =( GEOMETRIC_REPRESENTATION_CONTEXT ( 3 ) GLOBAL_UNCERTAINTY_ASSIGNED_CONTEXT ( ( #132 ) ) GLOBAL_UNIT_ASSIGNED_CONTEXT ( ( #77, #154, #140 ) ) REPRESENTATION_CONTEXT ( 'NONE', 'WORKASPACE' ) );
#120 = UNCERTAINTY_MEASURE_WITH_UNIT (LENGTH_MEASURE( 1.000000000000000082E-05 ), #50, 'distance_accuracy_value', 'NONE');
#121 = MECHANICAL_DESIGN_GEOMETRIC_PRESENTATION_REPRESENTATION (  '', ( #162 ), #196 ) ;
#122 = PRESENTATION_STYLE_ASSIGNMENT (( #200 ) ) ;
#123 =( LENGTH_UNIT ( ) NAMED_UNIT ( * ) SI_UNIT ( .MILLI., .METRE. ) );
#124 = ORIENTED_EDGE ( 'NONE', *, *, #150, .T. ) ;
#125 = AXIS2_PLACEMENT_3D ( 'NONE', #12, #25, #139 ) ;
#126 =( NAMED_UNIT ( * ) PLANE_ANGLE_UNIT ( ) SI_UNIT ( $, .RADIAN. ) );
#127 = APPLICATION_CONTEXT ( 'automotive_design' ) ;
#128 = AXIS2_PLACEMENT_3D ( 'NONE', #30, #93, #79 ) ;
#129 = FILL_AREA_STYLE ('',( #58 ) ) ;
#130 = EDGE_CURVE ( 'NONE', #35, #62, #171, .T. ) ;
#131 = CARTESIAN_POINT ( 'NONE',  ( 0.000000000000000000, 0.000000000000000000, 0.000000000000000000 ) ) ;
#132 = UNCERTAINTY_MEASURE_WITH_UNIT (LENGTH_MEASURE( 1.000000000000000082E-05 ), #77, 'distance_accuracy_value', 'NONE');
#133 = FILL_AREA_STYLE ('',( #72 ) ) ;
#134 = PRESENTATION_STYLE_ASSIGNMENT (( #118 ) ) ;
#135 =( GEOMETRIC_REPRESENTATION_CONTEXT ( 3 ) GLOBAL_UNCERTAINTY_ASSIGNED_CONTEXT ( ( #34 ) ) GLOBAL_UNIT_ASSIGNED_CONTEXT ( ( #183, #147, #60 ) ) REPRESENTATION_CONTEXT ( 'NONE', 'WORKASPACE' ) );
#136 = COLOUR_RGB ( '',0.8980392156862745390, 0.8980392156862745390, 0.8980392156862745390 ) ;
#137 = FILL_AREA_STYLE_COLOUR ( '', #136 ) ;
#138 = PRODUCT_DEFINITION_FORMATION_WITH_SPECIFIED_SOURCE ( 'ANY', '', #51, .NOT_KNOWN. ) ;
#139 = DIRECTION ( 'NONE',  ( -1.000000000000000000, 0.000000000000000000, 0.000000000000000000 ) ) ;
#140 =( NAMED_UNIT ( * ) SI_UNIT ( $, .STERADIAN. ) SOLID_ANGLE_UNIT ( ) );
#141 = EDGE_LOOP ( 'NONE', ( #63, #29, #185, #124 ) ) ;
#142 = VERTEX_POINT ( 'NONE', #54 ) ;
#143 = AXIS2_PLACEMENT_3D ( 'NONE', #116, #178, #163 ) ;
#144 = CARTESIAN_POINT ( 'NONE',  ( 9.000000000000000000, 1.102182119232617714E-15, 1000.000000000000000 ) ) ;
#145 = CARTESIAN_POINT ( 'NONE',  ( 0.000000000000000000, 0.000000000000000000, 1000.000000000000000 ) ) ;
#146 = UNCERTAINTY_MEASURE_WITH_UNIT (LENGTH_MEASURE( 1.000000000000000082E-05 ), #103, 'distance_accuracy_value', 'NONE');
#147 =( NAMED_UNIT ( * ) PLANE_ANGLE_UNIT ( ) SI_UNIT ( $, .RADIAN. ) );
#148 = DIRECTION ( 'NONE',  ( -0.000000000000000000, -0.000000000000000000, -1.000000000000000000 ) ) ;
#149 = PRESENTATION_LAYER_ASSIGNMENT (  '', '', ( #36 ) ) ;
#150 = EDGE_CURVE ( 'NONE', #1, #142, #180, .T. ) ;
#151 = LINE ( 'NONE', #55, #159 ) ;
#152 = FACE_OUTER_BOUND ( 'NONE', #82, .T. ) ;
#153 = PRESENTATION_LAYER_ASSIGNMENT (  '', '', ( #162 ) ) ;
#154 =( NAMED_UNIT ( * ) PLANE_ANGLE_UNIT ( ) SI_UNIT ( $, .RADIAN. ) );
#155 = ORIENTED_EDGE ( 'NONE', *, *, #13, .T. ) ;
#156 = PRESENTATION_STYLE_ASSIGNMENT (( #61 ) ) ;
#157 = ADVANCED_FACE ( 'NONE', ( #86 ), #195, .T. ) ;
#158 = SURFACE_STYLE_FILL_AREA ( #8 ) ;
#159 = VECTOR ( 'NONE', #70, 1000.000000000000000 ) ;
#160 =( NAMED_UNIT ( * ) PLANE_ANGLE_UNIT ( ) SI_UNIT ( $, .RADIAN. ) );
#161 = UNCERTAINTY_MEASURE_WITH_UNIT (LENGTH_MEASURE( 1.000000000000000082E-05 ), #181, 'distance_accuracy_value', 'NONE');
#162 = STYLED_ITEM ( 'NONE', ( #134 ), #92 ) ;
#163 = DIRECTION ( 'NONE',  ( 1.000000000000000000, 0.000000000000000000, 0.000000000000000000 ) ) ;
#164 = PRESENTATION_LAYER_ASSIGNMENT (  '', '', ( #49 ) ) ;
#165 =( GEOMETRIC_REPRESENTATION_CONTEXT ( 3 ) GLOBAL_UNCERTAINTY_ASSIGNED_CONTEXT ( ( #73 ) ) GLOBAL_UNIT_ASSIGNED_CONTEXT ( ( #6, #191, #175 ) ) REPRESENTATION_CONTEXT ( 'NONE', 'WORKASPACE' ) );
#166 = SURFACE_STYLE_USAGE ( .BOTH. , #10 ) ;
#167 = STYLED_ITEM ( 'NONE', ( #4 ), #173 ) ;
#168 = PRESENTATION_LAYER_ASSIGNMENT (  '', '', ( #56 ) ) ;
#169 =( NAMED_UNIT ( * ) SI_UNIT ( $, .STERADIAN. ) SOLID_ANGLE_UNIT ( ) );
#170 =( NAMED_UNIT ( * ) PLANE_ANGLE_UNIT ( ) SI_UNIT ( $, .RADIAN. ) );
#171 = CIRCLE ( 'NONE', #18, 9.000000000000000000 ) ;
#172 = CARTESIAN_POINT ( 'NONE',  ( -9.000000000000000000, 0.000000000000000000, 0.000000000000000000 ) ) ;
#173 = ADVANCED_FACE ( 'NONE', ( #43 ), #27, .T. ) ;
#174 = DIRECTION ( 'NONE',  ( 1.000000000000000000, 0.000000000000000000, 0.000000000000000000 ) ) ;
#175 =( NAMED_UNIT ( * ) SI_UNIT ( $, .STERADIAN. ) SOLID_ANGLE_UNIT ( ) );
#176 = ORIENTED_EDGE ( 'NONE', *, *, #130, .T. ) ;
#177 = SURFACE_SIDE_STYLE ('',( #19 ) ) ;
#178 = DIRECTION ( 'NONE',  ( 0.000000000000000000, 0.000000000000000000, 1.000000000000000000 ) ) ;
#179 = PRESENTATION_LAYER_ASSIGNMENT (  '', '', ( #167 ) ) ;
#180 = CIRCLE ( 'NONE', #143, 9.000000000000000000 ) ;
#181 =( LENGTH_UNIT ( ) NAMED_UNIT ( * ) SI_UNIT ( .MILLI., .METRE. ) );
#182 = SURFACE_STYLE_FILL_AREA ( #133 ) ;
#183 =( LENGTH_UNIT ( ) NAMED_UNIT ( * ) SI_UNIT ( .MILLI., .METRE. ) );
#184 = SURFACE_STYLE_FILL_AREA ( #42 ) ;
#185 = ORIENTED_EDGE ( 'NONE', *, *, #117, .T. ) ;
#186 = ADVANCED_FACE ( 'NONE', ( #152 ), #109, .F. ) ;
#187 = MECHANICAL_DESIGN_GEOMETRIC_PRESENTATION_REPRESENTATION (  '', ( #56 ), #11 ) ;
#188 = SHAPE_DEFINITION_REPRESENTATION ( #16, #57 ) ;
#189 = PRODUCT_DEFINITION_CONTEXT ( 'detailed design', #91, 'design' ) ;
#190 = PRESENTATION_STYLE_ASSIGNMENT (( #66 ) ) ;
#191 =( NAMED_UNIT ( * ) PLANE_ANGLE_UNIT ( ) SI_UNIT ( $, .RADIAN. ) );
#192 = DIRECTION ( 'NONE',  ( 0.000000000000000000, 0.000000000000000000, 1.000000000000000000 ) ) ;
#193 = DIRECTION ( 'NONE',  ( 1.000000000000000000, 0.000000000000000000, 0.000000000000000000 ) ) ;
#194 = EDGE_CURVE ( 'NONE', #35, #142, #75, .T. ) ;
#195 = CYLINDRICAL_SURFACE ( 'NONE', #125, 9.000000000000000000 ) ;
#196 =( GEOMETRIC_REPRESENTATION_CONTEXT ( 3 ) GLOBAL_UNCERTAINTY_ASSIGNED_CONTEXT ( ( #161 ) ) GLOBAL_UNIT_ASSIGNED_CONTEXT ( ( #181, #160, #83 ) ) REPRESENTATION_CONTEXT ( 'NONE', 'WORKASPACE' ) );
#197 = COLOUR_RGB ( '',0.8980392156862745390, 0.8980392156862745390, 0.8980392156862745390 ) ;
#198 = AXIS2_PLACEMENT_3D ( 'NONE', #2, #15, #106 ) ;
#199 = SURFACE_STYLE_FILL_AREA ( #78 ) ;
#200 = SURFACE_STYLE_USAGE ( .BOTH. , #28 ) ;
ENDSEC;
END-ISO-10303-21;
