ISO-10303-21;
HEADER;
FILE_DESCRIPTION (( 'STEP AP214' ),
    '1' );
FILE_NAME ('W5.STEP',
    '2021-12-29T07:48:23',
    ( '' ),
    ( '' ),
    'SwSTEP 2.0',
    'SolidWorks 2020',
    '' );
FILE_SCHEMA (( 'AUTOMOTIVE_DESIGN' ));
ENDSEC;

DATA;
#1 = PRODUCT_DEFINITION_SHAPE ( 'NONE', 'NONE',  #134 ) ;
#2 = ORIENTED_EDGE ( 'NONE', *, *, #68, .T. ) ;
#3 = FILL_AREA_STYLE ('',( #32 ) ) ;
#4 = APPLICATION_PROTOCOL_DEFINITION ( 'draft international standard', 'automotive_design', 1998, #181 ) ;
#5 = ORIENTED_EDGE ( 'NONE', *, *, #197, .F. ) ;
#6 = CARTESIAN_POINT ( 'NONE',  ( 0.000000000000000000, 0.000000000000000000, 500.0000000000000000 ) ) ;
#7 = PRESENTATION_LAYER_ASSIGNMENT (  '', '', ( #179 ) ) ;
#8 = CARTESIAN_POINT ( 'NONE',  ( -2.500000000000000000, 0.000000000000000000, 500.0000000000000000 ) ) ;
#9 = PRESENTATION_STYLE_ASSIGNMENT (( #126 ) ) ;
#10 = CARTESIAN_POINT ( 'NONE',  ( 0.000000000000000000, 0.000000000000000000, 500.0000000000000000 ) ) ;
#11 = COLOUR_RGB ( '',0.8980392156862745390, 0.8980392156862745390, 0.8980392156862745390 ) ;
#12 = DIRECTION ( 'NONE',  ( 0.000000000000000000, 0.000000000000000000, 1.000000000000000000 ) ) ;
#13 = ADVANCED_BREP_SHAPE_REPRESENTATION ( 'W5', ( #200, #58 ), #165 ) ;
#14 = COLOUR_RGB ( '',0.8980392156862745390, 0.8980392156862745390, 0.8980392156862745390 ) ;
#15 = EDGE_CURVE ( 'NONE', #104, #53, #78, .T. ) ;
#16 = DIRECTION ( 'NONE',  ( 1.000000000000000000, 0.000000000000000000, 0.000000000000000000 ) ) ;
#17 = ORIENTED_EDGE ( 'NONE', *, *, #161, .F. ) ;
#18 =( LENGTH_UNIT ( ) NAMED_UNIT ( * ) SI_UNIT ( .MILLI., .METRE. ) );
#19 = SURFACE_STYLE_USAGE ( .BOTH. , #34 ) ;
#20 = EDGE_LOOP ( 'NONE', ( #45, #84, #62, #123 ) ) ;
#21 = PRESENTATION_STYLE_ASSIGNMENT (( #85 ) ) ;
#22 = SURFACE_STYLE_FILL_AREA ( #163 ) ;
#23 =( GEOMETRIC_REPRESENTATION_CONTEXT ( 3 ) GLOBAL_UNCERTAINTY_ASSIGNED_CONTEXT ( ( #198 ) ) GLOBAL_UNIT_ASSIGNED_CONTEXT ( ( #175, #145, #87 ) ) REPRESENTATION_CONTEXT ( 'NONE', 'WORKASPACE' ) );
#24 = DIRECTION ( 'NONE',  ( -0.000000000000000000, -0.000000000000000000, -1.000000000000000000 ) ) ;
#25 = STYLED_ITEM ( 'NONE', ( #189 ), #174 ) ;
#26 = UNCERTAINTY_MEASURE_WITH_UNIT (LENGTH_MEASURE( 1.000000000000000082E-05 ), #18, 'distance_accuracy_value', 'NONE');
#27 = STYLED_ITEM ( 'NONE', ( #40 ), #142 ) ;
#28 =( NAMED_UNIT ( * ) SI_UNIT ( $, .STERADIAN. ) SOLID_ANGLE_UNIT ( ) );
#29 = VERTEX_POINT ( 'NONE', #8 ) ;
#30 = LINE ( 'NONE', #136, #77 ) ;
#31 = EDGE_LOOP ( 'NONE', ( #185, #113 ) ) ;
#32 = FILL_AREA_STYLE_COLOUR ( '', #55 ) ;
#33 = FILL_AREA_STYLE ('',( #72 ) ) ;
#34 = SURFACE_SIDE_STYLE ('',( #160 ) ) ;
#35 = PRODUCT_RELATED_PRODUCT_CATEGORY ( 'part', '', ( #184 ) ) ;
#36 = PRODUCT_DEFINITION_FORMATION_WITH_SPECIFIED_SOURCE ( 'ANY', '', #184, .NOT_KNOWN. ) ;
#37 = FILL_AREA_STYLE_COLOUR ( '', #91 ) ;
#38 = CARTESIAN_POINT ( 'NONE',  ( 0.000000000000000000, 0.000000000000000000, 0.000000000000000000 ) ) ;
#39 = SURFACE_STYLE_FILL_AREA ( #112 ) ;
#40 = PRESENTATION_STYLE_ASSIGNMENT (( #132 ) ) ;
#41 =( GEOMETRIC_REPRESENTATION_CONTEXT ( 3 ) GLOBAL_UNCERTAINTY_ASSIGNED_CONTEXT ( ( #26 ) ) GLOBAL_UNIT_ASSIGNED_CONTEXT ( ( #18, #128, #193 ) ) REPRESENTATION_CONTEXT ( 'NONE', 'WORKASPACE' ) );
#42 = UNCERTAINTY_MEASURE_WITH_UNIT (LENGTH_MEASURE( 1.000000000000000082E-05 ), #178, 'distance_accuracy_value', 'NONE');
#43 = PRESENTATION_LAYER_ASSIGNMENT (  '', '', ( #127 ) ) ;
#44 = CARTESIAN_POINT ( 'NONE',  ( 0.000000000000000000, 0.000000000000000000, 500.0000000000000000 ) ) ;
#45 = ORIENTED_EDGE ( 'NONE', *, *, #52, .F. ) ;
#46 = LINE ( 'NONE', #156, #92 ) ;
#47 = SURFACE_STYLE_USAGE ( .BOTH. , #138 ) ;
#48 = DIRECTION ( 'NONE',  ( 0.000000000000000000, 0.000000000000000000, 1.000000000000000000 ) ) ;
#49 = DIRECTION ( 'NONE',  ( 0.000000000000000000, 0.000000000000000000, 1.000000000000000000 ) ) ;
#50 = SURFACE_STYLE_FILL_AREA ( #33 ) ;
#51 = FILL_AREA_STYLE ('',( #98 ) ) ;
#52 = EDGE_CURVE ( 'NONE', #124, #29, #190, .T. ) ;
#53 = VERTEX_POINT ( 'NONE', #96 ) ;
#54 = DIRECTION ( 'NONE',  ( 1.000000000000000000, 0.000000000000000000, 0.000000000000000000 ) ) ;
#55 = COLOUR_RGB ( '',0.7921568627450980005, 0.8196078431372548767, 0.9333333333333333481 ) ;
#56 = COLOUR_RGB ( '',0.8980392156862745390, 0.8980392156862745390, 0.8980392156862745390 ) ;
#57 = PRESENTATION_LAYER_ASSIGNMENT (  '', '', ( #148 ) ) ;
#58 = AXIS2_PLACEMENT_3D ( 'NONE', #105, #48, #168 ) ;
#59 = DIRECTION ( 'NONE',  ( 1.000000000000000000, 0.000000000000000000, 0.000000000000000000 ) ) ;
#60 = SURFACE_STYLE_FILL_AREA ( #3 ) ;
#61 = APPLICATION_PROTOCOL_DEFINITION ( 'draft international standard', 'automotive_design', 1998, #166 ) ;
#62 = ORIENTED_EDGE ( 'NONE', *, *, #161, .T. ) ;
#63 = PRESENTATION_LAYER_ASSIGNMENT (  '', '', ( #25 ) ) ;
#64 = DIRECTION ( 'NONE',  ( -0.000000000000000000, -0.000000000000000000, -1.000000000000000000 ) ) ;
#65 = SURFACE_SIDE_STYLE ('',( #50 ) ) ;
#66 = SURFACE_SIDE_STYLE ('',( #140 ) ) ;
#67 = AXIS2_PLACEMENT_3D ( 'NONE', #154, #80, #59 ) ;
#68 = EDGE_CURVE ( 'NONE', #29, #104, #46, .T. ) ;
#69 =( NAMED_UNIT ( * ) SI_UNIT ( $, .STERADIAN. ) SOLID_ANGLE_UNIT ( ) );
#70 = MECHANICAL_DESIGN_GEOMETRIC_PRESENTATION_REPRESENTATION (  '', ( #27 ), #182 ) ;
#71 = DIRECTION ( 'NONE',  ( 0.000000000000000000, 0.000000000000000000, 1.000000000000000000 ) ) ;
#72 = FILL_AREA_STYLE_COLOUR ( '', #100 ) ;
#73 = CYLINDRICAL_SURFACE ( 'NONE', #135, 2.500000000000000000 ) ;
#74 =( NAMED_UNIT ( * ) PLANE_ANGLE_UNIT ( ) SI_UNIT ( $, .RADIAN. ) );
#75 = UNCERTAINTY_MEASURE_WITH_UNIT (LENGTH_MEASURE( 1.000000000000000082E-05 ), #155, 'distance_accuracy_value', 'NONE');
#76 = DIRECTION ( 'NONE',  ( 1.000000000000000000, 0.000000000000000000, 0.000000000000000000 ) ) ;
#77 = VECTOR ( 'NONE', #64, 1000.000000000000000 ) ;
#78 = CIRCLE ( 'NONE', #121, 2.500000000000000000 ) ;
#79 = DIRECTION ( 'NONE',  ( 0.000000000000000000, 0.000000000000000000, 1.000000000000000000 ) ) ;
#80 = DIRECTION ( 'NONE',  ( 0.000000000000000000, 0.000000000000000000, 1.000000000000000000 ) ) ;
#81 = DIRECTION ( 'NONE',  ( 1.000000000000000000, 0.000000000000000000, -0.000000000000000000 ) ) ;
#82 = ORIENTED_EDGE ( 'NONE', *, *, #15, .F. ) ;
#83 = PRESENTATION_STYLE_ASSIGNMENT (( #19 ) ) ;
#84 = ORIENTED_EDGE ( 'NONE', *, *, #197, .T. ) ;
#85 = SURFACE_STYLE_USAGE ( .BOTH. , #177 ) ;
#86 = FILL_AREA_STYLE ('',( #37 ) ) ;
#87 =( NAMED_UNIT ( * ) SI_UNIT ( $, .STERADIAN. ) SOLID_ANGLE_UNIT ( ) );
#88 =( GEOMETRIC_REPRESENTATION_CONTEXT ( 3 ) GLOBAL_UNCERTAINTY_ASSIGNED_CONTEXT ( ( #164 ) ) GLOBAL_UNIT_ASSIGNED_CONTEXT ( ( #111, #157, #139 ) ) REPRESENTATION_CONTEXT ( 'NONE', 'WORKASPACE' ) );
#89 = DIRECTION ( 'NONE',  ( -1.000000000000000000, 0.000000000000000000, 0.000000000000000000 ) ) ;
#90 = MECHANICAL_DESIGN_GEOMETRIC_PRESENTATION_REPRESENTATION (  '', ( #25 ), #41 ) ;
#91 = COLOUR_RGB ( '',0.7921568627450980005, 0.8196078431372548767, 0.9333333333333333481 ) ;
#92 = VECTOR ( 'NONE', #107, 1000.000000000000000 ) ;
#93 = AXIS2_PLACEMENT_3D ( 'NONE', #44, #24, #89 ) ;
#94 =( NAMED_UNIT ( * ) PLANE_ANGLE_UNIT ( ) SI_UNIT ( $, .RADIAN. ) );
#95 = FACE_OUTER_BOUND ( 'NONE', #109, .T. ) ;
#96 = CARTESIAN_POINT ( 'NONE',  ( 2.500000000000000000, 3.061616997868383141E-16, 0.000000000000000000 ) ) ;
#97 =( NAMED_UNIT ( * ) SI_UNIT ( $, .STERADIAN. ) SOLID_ANGLE_UNIT ( ) );
#98 = FILL_AREA_STYLE_COLOUR ( '', #56 ) ;
#99 = DIRECTION ( 'NONE',  ( 0.000000000000000000, 0.000000000000000000, 1.000000000000000000 ) ) ;
#100 = COLOUR_RGB ( '',0.8980392156862745390, 0.8980392156862745390, 0.8980392156862745390 ) ;
#101 = FILL_AREA_STYLE_COLOUR ( '', #14 ) ;
#102 = STYLED_ITEM ( 'NONE', ( #125 ), #200 ) ;
#103 = AXIS2_PLACEMENT_3D ( 'NONE', #130, #71, #54 ) ;
#104 = VERTEX_POINT ( 'NONE', #169 ) ;
#105 = CARTESIAN_POINT ( 'NONE',  ( 0.000000000000000000, 0.000000000000000000, 0.000000000000000000 ) ) ;
#106 = ADVANCED_FACE ( 'NONE', ( #95 ), #73, .T. ) ;
#107 = DIRECTION ( 'NONE',  ( -0.000000000000000000, -0.000000000000000000, -1.000000000000000000 ) ) ;
#108 = SHAPE_DEFINITION_REPRESENTATION ( #1, #13 ) ;
#109 = EDGE_LOOP ( 'NONE', ( #5, #192, #2, #172 ) ) ;
#110 =( GEOMETRIC_REPRESENTATION_CONTEXT ( 3 ) GLOBAL_UNCERTAINTY_ASSIGNED_CONTEXT ( ( #75 ) ) GLOBAL_UNIT_ASSIGNED_CONTEXT ( ( #155, #187, #97 ) ) REPRESENTATION_CONTEXT ( 'NONE', 'WORKASPACE' ) );
#111 =( LENGTH_UNIT ( ) NAMED_UNIT ( * ) SI_UNIT ( .MILLI., .METRE. ) );
#112 = FILL_AREA_STYLE ('',( #114 ) ) ;
#113 = ORIENTED_EDGE ( 'NONE', *, *, #52, .T. ) ;
#114 = FILL_AREA_STYLE_COLOUR ( '', #11 ) ;
#115 = FACE_OUTER_BOUND ( 'NONE', #137, .T. ) ;
#116 =( LENGTH_UNIT ( ) NAMED_UNIT ( * ) SI_UNIT ( .MILLI., .METRE. ) );
#117 = DIRECTION ( 'NONE',  ( -1.000000000000000000, 0.000000000000000000, 0.000000000000000000 ) ) ;
#118 = MECHANICAL_DESIGN_GEOMETRIC_PRESENTATION_REPRESENTATION (  '', ( #179 ), #88 ) ;
#119 =( NAMED_UNIT ( * ) SI_UNIT ( $, .STERADIAN. ) SOLID_ANGLE_UNIT ( ) );
#120 = CIRCLE ( 'NONE', #143, 2.500000000000000000 ) ;
#121 = AXIS2_PLACEMENT_3D ( 'NONE', #186, #49, #16 ) ;
#122 = EDGE_CURVE ( 'NONE', #29, #124, #167, .T. ) ;
#123 = ORIENTED_EDGE ( 'NONE', *, *, #68, .F. ) ;
#124 = VERTEX_POINT ( 'NONE', #196 ) ;
#125 = PRESENTATION_STYLE_ASSIGNMENT (( #47 ) ) ;
#126 = SURFACE_STYLE_USAGE ( .BOTH. , #65 ) ;
#127 = STYLED_ITEM ( 'NONE', ( #83 ), #13 ) ;
#128 =( NAMED_UNIT ( * ) PLANE_ANGLE_UNIT ( ) SI_UNIT ( $, .RADIAN. ) );
#129 = CLOSED_SHELL ( 'NONE', ( #142, #106, #183, #174 ) ) ;
#130 = CARTESIAN_POINT ( 'NONE',  ( 0.000000000000000000, 0.000000000000000000, 500.0000000000000000 ) ) ;
#131 = DIRECTION ( 'NONE',  ( -0.000000000000000000, -0.000000000000000000, -1.000000000000000000 ) ) ;
#132 = SURFACE_STYLE_USAGE ( .BOTH. , #147 ) ;
#133 = CYLINDRICAL_SURFACE ( 'NONE', #93, 2.500000000000000000 ) ;
#134 = PRODUCT_DEFINITION ( 'UNKNOWN', '', #36, #195 ) ;
#135 = AXIS2_PLACEMENT_3D ( 'NONE', #10, #131, #117 ) ;
#136 = CARTESIAN_POINT ( 'NONE',  ( 2.500000000000000000, 3.061616997868383141E-16, 500.0000000000000000 ) ) ;
#137 = EDGE_LOOP ( 'NONE', ( #82, #17 ) ) ;
#138 = SURFACE_SIDE_STYLE ('',( #60 ) ) ;
#139 =( NAMED_UNIT ( * ) SI_UNIT ( $, .STERADIAN. ) SOLID_ANGLE_UNIT ( ) );
#140 = SURFACE_STYLE_FILL_AREA ( #51 ) ;
#141 =( LENGTH_UNIT ( ) NAMED_UNIT ( * ) SI_UNIT ( .MILLI., .METRE. ) );
#142 = ADVANCED_FACE ( 'NONE', ( #194 ), #133, .T. ) ;
#143 = AXIS2_PLACEMENT_3D ( 'NONE', #149, #12, #76 ) ;
#144 = FACE_OUTER_BOUND ( 'NONE', #31, .T. ) ;
#145 =( NAMED_UNIT ( * ) PLANE_ANGLE_UNIT ( ) SI_UNIT ( $, .RADIAN. ) );
#146 = PRESENTATION_LAYER_ASSIGNMENT (  '', '', ( #102 ) ) ;
#147 = SURFACE_SIDE_STYLE ('',( #22 ) ) ;
#148 = STYLED_ITEM ( 'NONE', ( #21 ), #106 ) ;
#149 = CARTESIAN_POINT ( 'NONE',  ( 0.000000000000000000, 0.000000000000000000, 0.000000000000000000 ) ) ;
#150 = AXIS2_PLACEMENT_3D ( 'NONE', #38, #99, #162 ) ;
#151 = MECHANICAL_DESIGN_GEOMETRIC_PRESENTATION_REPRESENTATION (  '', ( #127 ), #159 ) ;
#152 = UNCERTAINTY_MEASURE_WITH_UNIT (LENGTH_MEASURE( 1.000000000000000082E-05 ), #116, 'distance_accuracy_value', 'NONE');
#153 = PRODUCT_CONTEXT ( 'NONE', #181, 'mechanical' ) ;
#154 = CARTESIAN_POINT ( 'NONE',  ( 0.000000000000000000, 0.000000000000000000, 500.0000000000000000 ) ) ;
#155 =( LENGTH_UNIT ( ) NAMED_UNIT ( * ) SI_UNIT ( .MILLI., .METRE. ) );
#156 = CARTESIAN_POINT ( 'NONE',  ( -2.500000000000000000, 0.000000000000000000, 500.0000000000000000 ) ) ;
#157 =( NAMED_UNIT ( * ) PLANE_ANGLE_UNIT ( ) SI_UNIT ( $, .RADIAN. ) );
#158 = SURFACE_STYLE_USAGE ( .BOTH. , #66 ) ;
#159 =( GEOMETRIC_REPRESENTATION_CONTEXT ( 3 ) GLOBAL_UNCERTAINTY_ASSIGNED_CONTEXT ( ( #180 ) ) GLOBAL_UNIT_ASSIGNED_CONTEXT ( ( #141, #94, #28 ) ) REPRESENTATION_CONTEXT ( 'NONE', 'WORKASPACE' ) );
#160 = SURFACE_STYLE_FILL_AREA ( #86 ) ;
#161 = EDGE_CURVE ( 'NONE', #53, #104, #120, .T. ) ;
#162 = DIRECTION ( 'NONE',  ( 1.000000000000000000, 0.000000000000000000, -0.000000000000000000 ) ) ;
#163 = FILL_AREA_STYLE ('',( #101 ) ) ;
#164 = UNCERTAINTY_MEASURE_WITH_UNIT (LENGTH_MEASURE( 1.000000000000000082E-05 ), #111, 'distance_accuracy_value', 'NONE');
#165 =( GEOMETRIC_REPRESENTATION_CONTEXT ( 3 ) GLOBAL_UNCERTAINTY_ASSIGNED_CONTEXT ( ( #152 ) ) GLOBAL_UNIT_ASSIGNED_CONTEXT ( ( #116, #191, #69 ) ) REPRESENTATION_CONTEXT ( 'NONE', 'WORKASPACE' ) );
#166 = APPLICATION_CONTEXT ( 'automotive_design' ) ;
#167 = CIRCLE ( 'NONE', #103, 2.500000000000000000 ) ;
#168 = DIRECTION ( 'NONE',  ( 1.000000000000000000, 0.000000000000000000, 0.000000000000000000 ) ) ;
#169 = CARTESIAN_POINT ( 'NONE',  ( -2.500000000000000000, 0.000000000000000000, 0.000000000000000000 ) ) ;
#170 = PLANE ( 'NONE',  #188 ) ;
#171 = MECHANICAL_DESIGN_GEOMETRIC_PRESENTATION_REPRESENTATION (  '', ( #102 ), #110 ) ;
#172 = ORIENTED_EDGE ( 'NONE', *, *, #15, .T. ) ;
#173 = MECHANICAL_DESIGN_GEOMETRIC_PRESENTATION_REPRESENTATION (  '', ( #148 ), #23 ) ;
#174 = ADVANCED_FACE ( 'NONE', ( #115 ), #176, .F. ) ;
#175 =( LENGTH_UNIT ( ) NAMED_UNIT ( * ) SI_UNIT ( .MILLI., .METRE. ) );
#176 = PLANE ( 'NONE',  #150 ) ;
#177 = SURFACE_SIDE_STYLE ('',( #39 ) ) ;
#178 =( LENGTH_UNIT ( ) NAMED_UNIT ( * ) SI_UNIT ( .MILLI., .METRE. ) );
#179 = STYLED_ITEM ( 'NONE', ( #9 ), #183 ) ;
#180 = UNCERTAINTY_MEASURE_WITH_UNIT (LENGTH_MEASURE( 1.000000000000000082E-05 ), #141, 'distance_accuracy_value', 'NONE');
#181 = APPLICATION_CONTEXT ( 'automotive_design' ) ;
#182 =( GEOMETRIC_REPRESENTATION_CONTEXT ( 3 ) GLOBAL_UNCERTAINTY_ASSIGNED_CONTEXT ( ( #42 ) ) GLOBAL_UNIT_ASSIGNED_CONTEXT ( ( #178, #74, #119 ) ) REPRESENTATION_CONTEXT ( 'NONE', 'WORKASPACE' ) );
#183 = ADVANCED_FACE ( 'NONE', ( #144 ), #170, .T. ) ;
#184 = PRODUCT ( 'W5', 'W5', '', ( #153 ) ) ;
#185 = ORIENTED_EDGE ( 'NONE', *, *, #122, .T. ) ;
#186 = CARTESIAN_POINT ( 'NONE',  ( 0.000000000000000000, 0.000000000000000000, 0.000000000000000000 ) ) ;
#187 =( NAMED_UNIT ( * ) PLANE_ANGLE_UNIT ( ) SI_UNIT ( $, .RADIAN. ) );
#188 = AXIS2_PLACEMENT_3D ( 'NONE', #6, #79, #81 ) ;
#189 = PRESENTATION_STYLE_ASSIGNMENT (( #158 ) ) ;
#190 = CIRCLE ( 'NONE', #67, 2.500000000000000000 ) ;
#191 =( NAMED_UNIT ( * ) PLANE_ANGLE_UNIT ( ) SI_UNIT ( $, .RADIAN. ) );
#192 = ORIENTED_EDGE ( 'NONE', *, *, #122, .F. ) ;
#193 =( NAMED_UNIT ( * ) SI_UNIT ( $, .STERADIAN. ) SOLID_ANGLE_UNIT ( ) );
#194 = FACE_OUTER_BOUND ( 'NONE', #20, .T. ) ;
#195 = PRODUCT_DEFINITION_CONTEXT ( 'detailed design', #166, 'design' ) ;
#196 = CARTESIAN_POINT ( 'NONE',  ( 2.500000000000000000, 3.061616997868383141E-16, 500.0000000000000000 ) ) ;
#197 = EDGE_CURVE ( 'NONE', #124, #53, #30, .T. ) ;
#198 = UNCERTAINTY_MEASURE_WITH_UNIT (LENGTH_MEASURE( 1.000000000000000082E-05 ), #175, 'distance_accuracy_value', 'NONE');
#199 = PRESENTATION_LAYER_ASSIGNMENT (  '', '', ( #27 ) ) ;
#200 = MANIFOLD_SOLID_BREP ( 'Boss-Extrude1', #129 ) ;
ENDSEC;
END-ISO-10303-21;
