ISO-10303-21;
HEADER;
FILE_DESCRIPTION (( 'STEP AP214' ),
    '1' );
FILE_NAME ('VD-25OP.STEP',
    '2021-11-03T09:29:50',
    ( '' ),
    ( '' ),
    'SwSTEP 2.0',
    'SolidWorks 2020',
    '' );
FILE_SCHEMA (( 'AUTOMOTIVE_DESIGN' ));
ENDSEC;

DATA;
#1 = DIRECTION ( 'NONE',  ( 0.000000000000000000, 0.000000000000000000, 1.000000000000000000 ) ) ;
#2 = DIRECTION ( 'NONE',  ( 0.000000000000000000, 0.000000000000000000, 1.000000000000000000 ) ) ;
#3 = STYLED_ITEM ( 'NONE', ( #172 ), #276 ) ;
#4 = DIRECTION ( 'NONE',  ( 0.000000000000000000, -1.000000000000000000, 0.000000000000000000 ) ) ;
#5 = EDGE_CURVE ( 'NONE', #337, #157, #266, .T. ) ;
#6 = PLANE ( 'NONE',  #84 ) ;
#7 = CARTESIAN_POINT ( 'NONE',  ( -2.449293598294706384E-18, -0.004000000000000000083, -0.02000000000000000042 ) ) ;
#8 = AXIS2_PLACEMENT_3D ( 'NONE', #211, #263, #235 ) ;
#9 = DIRECTION ( 'NONE',  ( -0.000000000000000000, 1.000000000000000000, -0.000000000000000000 ) ) ;
#10 = ORIENTED_EDGE ( 'NONE', *, *, #129, .F. ) ;
#11 = ORIENTED_EDGE ( 'NONE', *, *, #145, .T. ) ;
#12 = ORIENTED_EDGE ( 'NONE', *, *, #184, .T. ) ;
#13 = AXIS2_PLACEMENT_3D ( 'NONE', #213, #4, #1 ) ;
#14 = FILL_AREA_STYLE ('',( #205 ) ) ;
#15 = ORIENTED_EDGE ( 'NONE', *, *, #260, .F. ) ;
#16 = ORIENTED_EDGE ( 'NONE', *, *, #92, .F. ) ;
#17 = FACE_OUTER_BOUND ( 'NONE', #226, .T. ) ;
#18 = CARTESIAN_POINT ( 'NONE',  ( 0.000000000000000000, 0.000000000000000000, 0.000000000000000000 ) ) ;
#19 = AXIS2_PLACEMENT_3D ( 'NONE', #236, #183, #316 ) ;
#20 = ADVANCED_FACE ( 'NONE', ( #17 ), #162, .T. ) ;
#21 = LINE ( 'NONE', #319, #234 ) ;
#22 = CARTESIAN_POINT ( 'NONE',  ( 0.01757534769964321300, -0.004000000000000000083, 0.009545006717475164326 ) ) ;
#23 = UNCERTAINTY_MEASURE_WITH_UNIT (LENGTH_MEASURE( 1.000000000000000082E-05 ), #64, 'distance_accuracy_value', 'NONE');
#24 = CYLINDRICAL_SURFACE ( 'NONE', #48, 0.01250000000000000069 ) ;
#25 = CYLINDRICAL_SURFACE ( 'NONE', #13, 0.02000000000000000042 ) ;
#26 = FACE_OUTER_BOUND ( 'NONE', #200, .T. ) ;
#27 = CARTESIAN_POINT ( 'NONE',  ( 0.000000000000000000, 0.000000000000000000, 0.000000000000000000 ) ) ;
#28 = CIRCLE ( 'NONE', #229, 0.02000000000000000042 ) ;
#29 = PRESENTATION_LAYER_ASSIGNMENT (  '', '', ( #3 ) ) ;
#30 = CARTESIAN_POINT ( 'NONE',  ( 0.000000000000000000, -0.004000000000000000083, 0.000000000000000000 ) ) ;
#31 = FACE_OUTER_BOUND ( 'NONE', #286, .T. ) ;
#32 = ADVANCED_FACE ( 'NONE', ( #133 ), #24, .F. ) ;
#33 = ORIENTED_EDGE ( 'NONE', *, *, #54, .T. ) ;
#34 = VECTOR ( 'NONE', #309, 1.000000000000000000 ) ;
#35 = VECTOR ( 'NONE', #340, 1.000000000000000000 ) ;
#36 =( NAMED_UNIT ( * ) SI_UNIT ( $, .STERADIAN. ) SOLID_ANGLE_UNIT ( ) );
#37 = VERTEX_POINT ( 'NONE', #107 ) ;
#38 = SURFACE_STYLE_FILL_AREA ( #14 ) ;
#39 = ORIENTED_EDGE ( 'NONE', *, *, #260, .T. ) ;
#40 = EDGE_CURVE ( 'NONE', #173, #185, #243, .T. ) ;
#41 = VECTOR ( 'NONE', #9, 1.000000000000000000 ) ;
#42 = AXIS2_PLACEMENT_3D ( 'NONE', #112, #220, #61 ) ;
#43 = CARTESIAN_POINT ( 'NONE',  ( -1.530808498934191586E-18, -0.004000000000000000083, -0.01250000000000000069 ) ) ;
#44 = ORIENTED_EDGE ( 'NONE', *, *, #308, .T. ) ;
#45 = CYLINDRICAL_SURFACE ( 'NONE', #19, 0.01250000000000000069 ) ;
#46 = ADVANCED_FACE ( 'NONE', ( #138 ), #45, .F. ) ;
#47 = CARTESIAN_POINT ( 'NONE',  ( 0.01098421929742037298, 0.000000000000000000, 0.005966315984439469859 ) ) ;
#48 = AXIS2_PLACEMENT_3D ( 'NONE', #208, #105, #76 ) ;
#49 = DIRECTION ( 'NONE',  ( 0.000000000000000000, 1.000000000000000000, 0.000000000000000000 ) ) ;
#50 = AXIS2_PLACEMENT_3D ( 'NONE', #152, #305, #312 ) ;
#51 = DIRECTION ( 'NONE',  ( 1.000000000000000000, 0.000000000000000000, 0.000000000000000000 ) ) ;
#52 = SURFACE_STYLE_USAGE ( .BOTH. , #338 ) ;
#53 = ORIENTED_EDGE ( 'NONE', *, *, #298, .F. ) ;
#54 = EDGE_CURVE ( 'NONE', #72, #291, #96, .T. ) ;
#55 = STYLED_ITEM ( 'NONE', ( #288 ), #265 ) ;
#56 = DIRECTION ( 'NONE',  ( -0.4771587602596093491, 0.000000000000000000, 0.8788171126619649387 ) ) ;
#57 = DIRECTION ( 'NONE',  ( 1.000000000000000000, 0.000000000000000000, 0.000000000000000000 ) ) ;
#58 = DIRECTION ( 'NONE',  ( 0.000000000000000000, 0.000000000000000000, 1.000000000000000000 ) ) ;
#59 = CARTESIAN_POINT ( 'NONE',  ( 0.000000000000000000, -0.004000000000000000083, 0.02000000000000000042 ) ) ;
#60 = PRODUCT ( 'VD-25OP', 'VD-25OP', '', ( #250 ) ) ;
#61 = DIRECTION ( 'NONE',  ( 1.000000000000000000, 0.000000000000000000, 0.000000000000000000 ) ) ;
#62 = LINE ( 'NONE', #123, #34 ) ;
#63 = ORIENTED_EDGE ( 'NONE', *, *, #5, .F. ) ;
#64 =( LENGTH_UNIT ( ) NAMED_UNIT ( * ) SI_UNIT ( $, .METRE. ) );
#65 = CARTESIAN_POINT ( 'NONE',  ( 0.000000000000000000, 0.000000000000000000, 0.01250000000000000069 ) ) ;
#66 = ORIENTED_EDGE ( 'NONE', *, *, #149, .F. ) ;
#67 = VECTOR ( 'NONE', #223, 1.000000000000000000 ) ;
#68 = CLOSED_SHELL ( 'NONE', ( #209, #20, #46, #197, #174, #32, #254, #169, #214, #85 ) ) ;
#69 = DIRECTION ( 'NONE',  ( -0.000000000000000000, 1.000000000000000000, 0.000000000000000000 ) ) ;
#70 = VERTEX_POINT ( 'NONE', #47 ) ;
#71 = CARTESIAN_POINT ( 'NONE',  ( 0.01098421929742037124, -0.004000000000000000083, -0.005966315984439471594 ) ) ;
#72 = VERTEX_POINT ( 'NONE', #160 ) ;
#73 = CARTESIAN_POINT ( 'NONE',  ( 0.01757534769964321300, -0.004000000000000000083, -0.009545006717475167796 ) ) ;
#74 = ORIENTED_EDGE ( 'NONE', *, *, #230, .F. ) ;
#75 = DIRECTION ( 'NONE',  ( 1.000000000000000000, 0.000000000000000000, 0.000000000000000000 ) ) ;
#76 = DIRECTION ( 'NONE',  ( 0.000000000000000000, 0.000000000000000000, 1.000000000000000000 ) ) ;
#77 = DIRECTION ( 'NONE',  ( 1.000000000000000000, 0.000000000000000000, 0.000000000000000000 ) ) ;
#78 = AXIS2_PLACEMENT_3D ( 'NONE', #303, #247, #216 ) ;
#79 = CARTESIAN_POINT ( 'NONE',  ( 0.01757534769964323382, -0.004000000000000000083, 0.009545006717475164326 ) ) ;
#80 = EDGE_LOOP ( 'NONE', ( #306, #311, #33, #202, #178, #256, #10, #287 ) ) ;
#81 = EDGE_CURVE ( 'NONE', #318, #282, #90, .T. ) ;
#82 = LINE ( 'NONE', #109, #269 ) ;
#83 = DIRECTION ( 'NONE',  ( 1.000000000000000000, 0.000000000000000000, 0.000000000000000000 ) ) ;
#84 = AXIS2_PLACEMENT_3D ( 'NONE', #27, #301, #146 ) ;
#85 = ADVANCED_FACE ( 'NONE', ( #130 ), #158, .F. ) ;
#86 = LINE ( 'NONE', #322, #114 ) ;
#87 = DIRECTION ( 'NONE',  ( 0.000000000000000000, 0.000000000000000000, 1.000000000000000000 ) ) ;
#88 = CARTESIAN_POINT ( 'NONE',  ( 0.000000000000000000, -0.004000000000000000083, 0.000000000000000000 ) ) ;
#89 = LINE ( 'NONE', #7, #273 ) ;
#90 = CIRCLE ( 'NONE', #164, 0.01250000000000000069 ) ;
#91 =( LENGTH_UNIT ( ) NAMED_UNIT ( * ) SI_UNIT ( $, .METRE. ) );
#92 = EDGE_CURVE ( 'NONE', #185, #317, #181, .T. ) ;
#93 = LINE ( 'NONE', #283, #67 ) ;
#94 = ORIENTED_EDGE ( 'NONE', *, *, #230, .T. ) ;
#95 = ORIENTED_EDGE ( 'NONE', *, *, #134, .T. ) ;
#96 = CIRCLE ( 'NONE', #187, 0.01250000000000000069 ) ;
#97 = MECHANICAL_DESIGN_GEOMETRIC_PRESENTATION_REPRESENTATION (  '', ( #3 ), #203 ) ;
#98 = DIRECTION ( 'NONE',  ( 0.000000000000000000, 1.000000000000000000, 0.000000000000000000 ) ) ;
#99 = ORIENTED_EDGE ( 'NONE', *, *, #184, .F. ) ;
#100 = DIRECTION ( 'NONE',  ( 0.000000000000000000, -1.000000000000000000, 0.000000000000000000 ) ) ;
#101 = ORIENTED_EDGE ( 'NONE', *, *, #54, .F. ) ;
#102 = AXIS2_PLACEMENT_3D ( 'NONE', #18, #49, #239 ) ;
#103 = CARTESIAN_POINT ( 'NONE',  ( 0.000000000000000000, -0.004000000000000000083, 0.000000000000000000 ) ) ;
#104 = DIRECTION ( 'NONE',  ( 1.000000000000000000, 0.000000000000000000, 0.000000000000000000 ) ) ;
#105 = DIRECTION ( 'NONE',  ( 0.000000000000000000, -1.000000000000000000, 0.000000000000000000 ) ) ;
#106 = ORIENTED_EDGE ( 'NONE', *, *, #323, .T. ) ;
#107 = CARTESIAN_POINT ( 'NONE',  ( 0.01757534769964323382, 0.000000000000000000, -0.009545006717475167796 ) ) ;
#108 = APPLICATION_CONTEXT ( 'automotive_design' ) ;
#109 = CARTESIAN_POINT ( 'NONE',  ( -1.530808498934191586E-18, -0.004000000000000000083, -0.01250000000000000069 ) ) ;
#110 = EDGE_CURVE ( 'NONE', #232, #337, #21, .T. ) ;
#111 = VECTOR ( 'NONE', #100, 1.000000000000000000 ) ;
#112 = CARTESIAN_POINT ( 'NONE',  ( 0.000000000000000000, -0.004000000000000000083, 0.000000000000000000 ) ) ;
#113 = CIRCLE ( 'NONE', #302, 0.02000000000000000042 ) ;
#114 = VECTOR ( 'NONE', #191, 1.000000000000000000 ) ;
#115 = PLANE ( 'NONE',  #264 ) ;
#116 = CARTESIAN_POINT ( 'NONE',  ( 0.01098421929742037124, 0.000000000000000000, -0.005966315984439471594 ) ) ;
#117 = SURFACE_STYLE_USAGE ( .BOTH. , #252 ) ;
#118 = VERTEX_POINT ( 'NONE', #79 ) ;
#119 =( NAMED_UNIT ( * ) SI_UNIT ( $, .STERADIAN. ) SOLID_ANGLE_UNIT ( ) );
#120 = LINE ( 'NONE', #255, #111 ) ;
#121 = ORIENTED_EDGE ( 'NONE', *, *, #92, .T. ) ;
#122 = PRODUCT_DEFINITION ( 'UNKNOWN', '', #180, #139 ) ;
#123 = CARTESIAN_POINT ( 'NONE',  ( 0.000000000000000000, -0.004000000000000000083, 0.01250000000000000069 ) ) ;
#124 = ORIENTED_EDGE ( 'NONE', *, *, #238, .T. ) ;
#125 = AXIS2_PLACEMENT_3D ( 'NONE', #165, #300, #58 ) ;
#126 =( NAMED_UNIT ( * ) SI_UNIT ( $, .STERADIAN. ) SOLID_ANGLE_UNIT ( ) );
#127 = ORIENTED_EDGE ( 'NONE', *, *, #238, .F. ) ;
#128 = ORIENTED_EDGE ( 'NONE', *, *, #242, .T. ) ;
#129 = EDGE_CURVE ( 'NONE', #232, #336, #292, .T. ) ;
#130 = FACE_OUTER_BOUND ( 'NONE', #231, .T. ) ;
#131 = AXIS2_PLACEMENT_3D ( 'NONE', #142, #170, #2 ) ;
#132 = DIRECTION ( 'NONE',  ( 0.000000000000000000, -1.000000000000000000, 0.000000000000000000 ) ) ;
#133 = FACE_OUTER_BOUND ( 'NONE', #190, .T. ) ;
#134 = EDGE_CURVE ( 'NONE', #317, #118, #267, .T. ) ;
#135 = CARTESIAN_POINT ( 'NONE',  ( 0.000000000000000000, -0.004000000000000000083, 0.000000000000000000 ) ) ;
#136 =( GEOMETRIC_REPRESENTATION_CONTEXT ( 3 ) GLOBAL_UNCERTAINTY_ASSIGNED_CONTEXT ( ( #23 ) ) GLOBAL_UNIT_ASSIGNED_CONTEXT ( ( #64, #246, #119 ) ) REPRESENTATION_CONTEXT ( 'NONE', 'WORKASPACE' ) );
#137 = AXIS2_PLACEMENT_3D ( 'NONE', #189, #293, #51 ) ;
#138 = FACE_OUTER_BOUND ( 'NONE', #237, .T. ) ;
#139 = PRODUCT_DEFINITION_CONTEXT ( 'detailed design', #215, 'design' ) ;
#140 = DIRECTION ( 'NONE',  ( 0.000000000000000000, 1.000000000000000000, 0.000000000000000000 ) ) ;
#141 = CARTESIAN_POINT ( 'NONE',  ( -4.367779596267662434E-06, 0.000000000000000000, -1.224646799147354733E-18 ) ) ;
#142 = CARTESIAN_POINT ( 'NONE',  ( 0.000000000000000000, -0.004000000000000000083, 0.000000000000000000 ) ) ;
#143 = DIRECTION ( 'NONE',  ( 0.000000000000000000, 1.000000000000000000, 0.000000000000000000 ) ) ;
#144 = DIRECTION ( 'NONE',  ( 1.000000000000000000, 0.000000000000000000, 0.000000000000000000 ) ) ;
#145 = EDGE_CURVE ( 'NONE', #336, #224, #28, .T. ) ;
#146 = DIRECTION ( 'NONE',  ( 1.000000000000000000, 0.000000000000000000, 0.000000000000000000 ) ) ;
#147 = CARTESIAN_POINT ( 'NONE',  ( 0.000000000000000000, -0.004000000000000000083, 0.000000000000000000 ) ) ;
#148 = EDGE_LOOP ( 'NONE', ( #346, #284, #11, #74 ) ) ;
#149 = EDGE_CURVE ( 'NONE', #318, #339, #82, .T. ) ;
#150 = ORIENTED_EDGE ( 'NONE', *, *, #333, .F. ) ;
#151 = EDGE_LOOP ( 'NONE', ( #66, #334, #153, #53 ) ) ;
#152 = CARTESIAN_POINT ( 'NONE',  ( 0.000000000000000000, 0.000000000000000000, 0.000000000000000000 ) ) ;
#153 = ORIENTED_EDGE ( 'NONE', *, *, #330, .T. ) ;
#154 = VECTOR ( 'NONE', #166, 1.000000000000000000 ) ;
#155 = ORIENTED_EDGE ( 'NONE', *, *, #206, .F. ) ;
#156 = PRODUCT_RELATED_PRODUCT_CATEGORY ( 'part', '', ( #60 ) ) ;
#157 = VERTEX_POINT ( 'NONE', #116 ) ;
#158 = PLANE ( 'NONE',  #8 ) ;
#159 = AXIS2_PLACEMENT_3D ( 'NONE', #103, #132, #268 ) ;
#160 = CARTESIAN_POINT ( 'NONE',  ( 0.000000000000000000, -0.004000000000000000083, 0.01250000000000000069 ) ) ;
#161 = DIRECTION ( 'NONE',  ( -0.8788171126619649387, 0.000000000000000000, 0.4771587602596093491 ) ) ;
#162 = CYLINDRICAL_SURFACE ( 'NONE', #159, 0.02000000000000000042 ) ;
#163 = EDGE_CURVE ( 'NONE', #282, #70, #192, .T. ) ;
#164 = AXIS2_PLACEMENT_3D ( 'NONE', #343, #182, #104 ) ;
#165 = CARTESIAN_POINT ( 'NONE',  ( 0.000000000000000000, -0.004000000000000000083, 0.000000000000000000 ) ) ;
#166 = DIRECTION ( 'NONE',  ( 0.000000000000000000, -1.000000000000000000, 0.000000000000000000 ) ) ;
#167 = FACE_OUTER_BOUND ( 'NONE', #289, .T. ) ;
#168 = CARTESIAN_POINT ( 'NONE',  ( 0.01757534769964321300, -0.004000000000000000083, -0.009545006717475167796 ) ) ;
#169 = ADVANCED_FACE ( 'NONE', ( #167 ), #299, .T. ) ;
#170 = DIRECTION ( 'NONE',  ( 0.000000000000000000, -1.000000000000000000, 0.000000000000000000 ) ) ;
#171 = APPLICATION_PROTOCOL_DEFINITION ( 'draft international standard', 'automotive_design', 1998, #215 ) ;
#172 = PRESENTATION_STYLE_ASSIGNMENT (( #117 ) ) ;
#173 = VERTEX_POINT ( 'NONE', #327 ) ;
#174 = ADVANCED_FACE ( 'NONE', ( #31 ), #6, .T. ) ;
#175 = COLOUR_RGB ( '',0.7529411764705882248, 0.7529411764705882248, 0.7529411764705882248 ) ;
#176 = ORIENTED_EDGE ( 'NONE', *, *, #222, .F. ) ;
#177 = AXIS2_PLACEMENT_3D ( 'NONE', #326, #69, #314 ) ;
#178 = ORIENTED_EDGE ( 'NONE', *, *, #242, .F. ) ;
#179 = ORIENTED_EDGE ( 'NONE', *, *, #40, .T. ) ;
#180 = PRODUCT_DEFINITION_FORMATION_WITH_SPECIFIED_SOURCE ( 'ANY', '', #60, .NOT_KNOWN. ) ;
#181 = CIRCLE ( 'NONE', #217, 0.02000000000000000042 ) ;
#182 = DIRECTION ( 'NONE',  ( 0.000000000000000000, 1.000000000000000000, 0.000000000000000000 ) ) ;
#183 = DIRECTION ( 'NONE',  ( 0.000000000000000000, -1.000000000000000000, 0.000000000000000000 ) ) ;
#184 = EDGE_CURVE ( 'NONE', #37, #157, #86, .T. ) ;
#185 = VERTEX_POINT ( 'NONE', #248 ) ;
#186 = PRESENTATION_LAYER_ASSIGNMENT (  '', '', ( #55 ) ) ;
#187 = AXIS2_PLACEMENT_3D ( 'NONE', #135, #261, #75 ) ;
#188 = COLOUR_RGB ( '',0.7529411764705882248, 0.7529411764705882248, 0.7529411764705882248 ) ;
#189 = CARTESIAN_POINT ( 'NONE',  ( 0.000000000000000000, -0.004000000000000000083, 0.000000000000000000 ) ) ;
#190 = EDGE_LOOP ( 'NONE', ( #253, #332, #44, #101 ) ) ;
#191 = DIRECTION ( 'NONE',  ( -0.8788171126619649387, -0.000000000000000000, 0.4771587602596093491 ) ) ;
#192 = CIRCLE ( 'NONE', #78, 0.01250000000000000069 ) ;
#193 = CARTESIAN_POINT ( 'NONE',  ( 0.000000000000000000, 0.000000000000000000, 0.000000000000000000 ) ) ;
#194 = SHAPE_DEFINITION_REPRESENTATION ( #304, #265 ) ;
#195 = CARTESIAN_POINT ( 'NONE',  ( 0.000000000000000000, -0.004000000000000000083, 0.02000000000000000042 ) ) ;
#196 = DIRECTION ( 'NONE',  ( 0.000000000000000000, 1.000000000000000000, 0.000000000000000000 ) ) ;
#197 = ADVANCED_FACE ( 'NONE', ( #271 ), #272, .F. ) ;
#198 = FACE_OUTER_BOUND ( 'NONE', #80, .T. ) ;
#199 = CARTESIAN_POINT ( 'NONE',  ( -2.449293598294706384E-18, -0.004000000000000000083, -0.02000000000000000042 ) ) ;
#200 = EDGE_LOOP ( 'NONE', ( #124, #95, #150, #295 ) ) ;
#201 = FILL_AREA_STYLE_COLOUR ( '', #175 ) ;
#202 = ORIENTED_EDGE ( 'NONE', *, *, #333, .T. ) ;
#203 =( GEOMETRIC_REPRESENTATION_CONTEXT ( 3 ) GLOBAL_UNCERTAINTY_ASSIGNED_CONTEXT ( ( #328 ) ) GLOBAL_UNIT_ASSIGNED_CONTEXT ( ( #331, #258, #126 ) ) REPRESENTATION_CONTEXT ( 'NONE', 'WORKASPACE' ) );
#204 = CARTESIAN_POINT ( 'NONE',  ( -1.530808498934191586E-18, 0.000000000000000000, -0.01250000000000000069 ) ) ;
#205 = FILL_AREA_STYLE_COLOUR ( '', #188 ) ;
#206 = EDGE_CURVE ( 'NONE', #173, #336, #89, .T. ) ;
#207 = ORIENTED_EDGE ( 'NONE', *, *, #219, .F. ) ;
#208 = CARTESIAN_POINT ( 'NONE',  ( 0.000000000000000000, -0.004000000000000000083, 0.000000000000000000 ) ) ;
#209 = ADVANCED_FACE ( 'NONE', ( #245 ), #25, .T. ) ;
#210 = DIRECTION ( 'NONE',  ( 0.000000000000000000, 1.000000000000000000, 0.000000000000000000 ) ) ;
#211 = CARTESIAN_POINT ( 'NONE',  ( -4.367779596267662434E-06, -0.01000000000000000021, -1.224646799147354733E-18 ) ) ;
#212 = ORIENTED_EDGE ( 'NONE', *, *, #163, .F. ) ;
#213 = CARTESIAN_POINT ( 'NONE',  ( 0.000000000000000000, -0.004000000000000000083, 0.000000000000000000 ) ) ;
#214 = ADVANCED_FACE ( 'NONE', ( #26 ), #115, .F. ) ;
#215 = APPLICATION_CONTEXT ( 'automotive_design' ) ;
#216 = DIRECTION ( 'NONE',  ( 1.000000000000000000, 0.000000000000000000, 0.000000000000000000 ) ) ;
#217 = AXIS2_PLACEMENT_3D ( 'NONE', #342, #210, #77 ) ;
#218 = PLANE ( 'NONE',  #177 ) ;
#219 = EDGE_CURVE ( 'NONE', #337, #339, #320, .T. ) ;
#220 = DIRECTION ( 'NONE',  ( 0.000000000000000000, 1.000000000000000000, 0.000000000000000000 ) ) ;
#221 = DIRECTION ( 'NONE',  ( 0.000000000000000000, -1.000000000000000000, 0.000000000000000000 ) ) ;
#222 = EDGE_CURVE ( 'NONE', #37, #173, #113, .T. ) ;
#223 = DIRECTION ( 'NONE',  ( 0.8788171126619649387, -0.000000000000000000, 0.4771587602596093491 ) ) ;
#224 = VERTEX_POINT ( 'NONE', #195 ) ;
#225 = APPLICATION_PROTOCOL_DEFINITION ( 'draft international standard', 'automotive_design', 1998, #108 ) ;
#226 = EDGE_LOOP ( 'NONE', ( #16, #94, #128, #279 ) ) ;
#227 = FILL_AREA_STYLE ('',( #201 ) ) ;
#228 = ORIENTED_EDGE ( 'NONE', *, *, #110, .F. ) ;
#229 = AXIS2_PLACEMENT_3D ( 'NONE', #88, #143, #277 ) ;
#230 = EDGE_CURVE ( 'NONE', #185, #224, #329, .T. ) ;
#231 = EDGE_LOOP ( 'NONE', ( #228, #106, #12, #63 ) ) ;
#232 = VERTEX_POINT ( 'NONE', #168 ) ;
#233 = CARTESIAN_POINT ( 'NONE',  ( 0.01098421929742037124, -0.004000000000000000083, -0.005966315984439471594 ) ) ;
#234 = VECTOR ( 'NONE', #161, 1.000000000000000000 ) ;
#235 = DIRECTION ( 'NONE',  ( -0.8788171126619649387, 0.000000000000000000, 0.4771587602596093491 ) ) ;
#236 = CARTESIAN_POINT ( 'NONE',  ( 0.000000000000000000, -0.004000000000000000083, 0.000000000000000000 ) ) ;
#237 = EDGE_LOOP ( 'NONE', ( #39, #315, #207, #321 ) ) ;
#238 = EDGE_CURVE ( 'NONE', #70, #317, #274, .T. ) ;
#239 = DIRECTION ( 'NONE',  ( 1.000000000000000000, 0.000000000000000000, 0.000000000000000000 ) ) ;
#240 = DIRECTION ( 'NONE',  ( 0.8788171126619649387, 0.000000000000000000, 0.4771587602596093491 ) ) ;
#241 = DIRECTION ( 'NONE',  ( 0.8788171126619649387, 0.000000000000000000, 0.4771587602596093491 ) ) ;
#242 = EDGE_CURVE ( 'NONE', #224, #118, #345, .T. ) ;
#243 = CIRCLE ( 'NONE', #102, 0.02000000000000000042 ) ;
#244 = AXIS2_PLACEMENT_3D ( 'NONE', #147, #98, #278 ) ;
#245 = FACE_OUTER_BOUND ( 'NONE', #148, .T. ) ;
#246 =( NAMED_UNIT ( * ) PLANE_ANGLE_UNIT ( ) SI_UNIT ( $, .RADIAN. ) );
#247 = DIRECTION ( 'NONE',  ( 0.000000000000000000, 1.000000000000000000, 0.000000000000000000 ) ) ;
#248 = CARTESIAN_POINT ( 'NONE',  ( 0.000000000000000000, 0.000000000000000000, 0.02000000000000000042 ) ) ;
#249 = CARTESIAN_POINT ( 'NONE',  ( 0.01757534769964321300, 0.000000000000000000, 0.009545006717475164326 ) ) ;
#250 = PRODUCT_CONTEXT ( 'NONE', #108, 'mechanical' ) ;
#251 = ORIENTED_EDGE ( 'NONE', *, *, #81, .F. ) ;
#252 = SURFACE_SIDE_STYLE ('',( #38 ) ) ;
#253 = ORIENTED_EDGE ( 'NONE', *, *, #330, .F. ) ;
#254 = ADVANCED_FACE ( 'NONE', ( #198 ), #218, .F. ) ;
#255 = CARTESIAN_POINT ( 'NONE',  ( 0.01098421929742037298, -0.004000000000000000083, 0.005966315984439469859 ) ) ;
#256 = ORIENTED_EDGE ( 'NONE', *, *, #145, .F. ) ;
#257 = AXIS2_PLACEMENT_3D ( 'NONE', #30, #140, #83 ) ;
#258 =( NAMED_UNIT ( * ) PLANE_ANGLE_UNIT ( ) SI_UNIT ( $, .RADIAN. ) );
#259 = ORIENTED_EDGE ( 'NONE', *, *, #129, .T. ) ;
#260 = EDGE_CURVE ( 'NONE', #157, #318, #281, .T. ) ;
#261 = DIRECTION ( 'NONE',  ( 0.000000000000000000, 1.000000000000000000, 0.000000000000000000 ) ) ;
#262 =( GEOMETRIC_REPRESENTATION_CONTEXT ( 3 ) GLOBAL_UNCERTAINTY_ASSIGNED_CONTEXT ( ( #307 ) ) GLOBAL_UNIT_ASSIGNED_CONTEXT ( ( #91, #280, #36 ) ) REPRESENTATION_CONTEXT ( 'NONE', 'WORKASPACE' ) );
#263 = DIRECTION ( 'NONE',  ( -0.4771587602596093491, 0.000000000000000000, -0.8788171126619649387 ) ) ;
#264 = AXIS2_PLACEMENT_3D ( 'NONE', #324, #56, #240 ) ;
#265 = ADVANCED_BREP_SHAPE_REPRESENTATION ( 'VD-25OP', ( #276, #290 ), #262 ) ;
#266 = LINE ( 'NONE', #233, #35 ) ;
#267 = LINE ( 'NONE', #22, #341 ) ;
#268 = DIRECTION ( 'NONE',  ( 0.000000000000000000, 0.000000000000000000, 1.000000000000000000 ) ) ;
#269 = VECTOR ( 'NONE', #296, 1.000000000000000000 ) ;
#270 = DIRECTION ( 'NONE',  ( 0.000000000000000000, -1.000000000000000000, 0.000000000000000000 ) ) ;
#271 = FACE_OUTER_BOUND ( 'NONE', #151, .T. ) ;
#272 = CYLINDRICAL_SURFACE ( 'NONE', #131, 0.01250000000000000069 ) ;
#273 = VECTOR ( 'NONE', #221, 1.000000000000000000 ) ;
#274 = LINE ( 'NONE', #141, #325 ) ;
#275 = CARTESIAN_POINT ( 'NONE',  ( 0.000000000000000000, 0.000000000000000000, 0.000000000000000000 ) ) ;
#276 = MANIFOLD_SOLID_BREP ( 'Cut-Extrude1', #68 ) ;
#277 = DIRECTION ( 'NONE',  ( 1.000000000000000000, 0.000000000000000000, 0.000000000000000000 ) ) ;
#278 = DIRECTION ( 'NONE',  ( 1.000000000000000000, 0.000000000000000000, 0.000000000000000000 ) ) ;
#279 = ORIENTED_EDGE ( 'NONE', *, *, #134, .F. ) ;
#280 =( NAMED_UNIT ( * ) PLANE_ANGLE_UNIT ( ) SI_UNIT ( $, .RADIAN. ) );
#281 = CIRCLE ( 'NONE', #50, 0.01250000000000000069 ) ;
#282 = VERTEX_POINT ( 'NONE', #65 ) ;
#283 = CARTESIAN_POINT ( 'NONE',  ( -9.944581658985492130E-07, -0.004000000000000000083, 1.831564097330174141E-06 ) ) ;
#284 = ORIENTED_EDGE ( 'NONE', *, *, #206, .T. ) ;
#285 = LINE ( 'NONE', #73, #41 ) ;
#286 = EDGE_LOOP ( 'NONE', ( #127, #212, #251, #15, #99, #344, #179, #121 ) ) ;
#287 = ORIENTED_EDGE ( 'NONE', *, *, #110, .T. ) ;
#288 = PRESENTATION_STYLE_ASSIGNMENT (( #52 ) ) ;
#289 = EDGE_LOOP ( 'NONE', ( #155, #176, #313, #259 ) ) ;
#290 = AXIS2_PLACEMENT_3D ( 'NONE', #275, #87, #144 ) ;
#291 = VERTEX_POINT ( 'NONE', #335 ) ;
#292 = CIRCLE ( 'NONE', #137, 0.02000000000000000042 ) ;
#293 = DIRECTION ( 'NONE',  ( 0.000000000000000000, 1.000000000000000000, 0.000000000000000000 ) ) ;
#294 = SURFACE_STYLE_FILL_AREA ( #227 ) ;
#295 = ORIENTED_EDGE ( 'NONE', *, *, #308, .F. ) ;
#296 = DIRECTION ( 'NONE',  ( 0.000000000000000000, -1.000000000000000000, 0.000000000000000000 ) ) ;
#297 = MECHANICAL_DESIGN_GEOMETRIC_PRESENTATION_REPRESENTATION (  '', ( #55 ), #136 ) ;
#298 = EDGE_CURVE ( 'NONE', #339, #72, #310, .T. ) ;
#299 = CYLINDRICAL_SURFACE ( 'NONE', #125, 0.02000000000000000042 ) ;
#300 = DIRECTION ( 'NONE',  ( 0.000000000000000000, -1.000000000000000000, 0.000000000000000000 ) ) ;
#301 = DIRECTION ( 'NONE',  ( -0.000000000000000000, 1.000000000000000000, 0.000000000000000000 ) ) ;
#302 = AXIS2_PLACEMENT_3D ( 'NONE', #193, #196, #57 ) ;
#303 = CARTESIAN_POINT ( 'NONE',  ( 0.000000000000000000, 0.000000000000000000, 0.000000000000000000 ) ) ;
#304 = PRODUCT_DEFINITION_SHAPE ( 'NONE', 'NONE',  #122 ) ;
#305 = DIRECTION ( 'NONE',  ( 0.000000000000000000, 1.000000000000000000, 0.000000000000000000 ) ) ;
#306 = ORIENTED_EDGE ( 'NONE', *, *, #219, .T. ) ;
#307 = UNCERTAINTY_MEASURE_WITH_UNIT (LENGTH_MEASURE( 1.000000000000000082E-05 ), #91, 'distance_accuracy_value', 'NONE');
#308 = EDGE_CURVE ( 'NONE', #70, #291, #120, .T. ) ;
#309 = DIRECTION ( 'NONE',  ( 0.000000000000000000, -1.000000000000000000, 0.000000000000000000 ) ) ;
#310 = CIRCLE ( 'NONE', #244, 0.01250000000000000069 ) ;
#311 = ORIENTED_EDGE ( 'NONE', *, *, #298, .T. ) ;
#312 = DIRECTION ( 'NONE',  ( 1.000000000000000000, 0.000000000000000000, 0.000000000000000000 ) ) ;
#313 = ORIENTED_EDGE ( 'NONE', *, *, #323, .F. ) ;
#314 = DIRECTION ( 'NONE',  ( 1.000000000000000000, 0.000000000000000000, 0.000000000000000000 ) ) ;
#315 = ORIENTED_EDGE ( 'NONE', *, *, #149, .T. ) ;
#316 = DIRECTION ( 'NONE',  ( 0.000000000000000000, 0.000000000000000000, 1.000000000000000000 ) ) ;
#317 = VERTEX_POINT ( 'NONE', #249 ) ;
#318 = VERTEX_POINT ( 'NONE', #204 ) ;
#319 = CARTESIAN_POINT ( 'NONE',  ( -9.944581658995762404E-07, -0.004000000000000000083, -1.831564097332065565E-06 ) ) ;
#320 = CIRCLE ( 'NONE', #257, 0.01250000000000000069 ) ;
#321 = ORIENTED_EDGE ( 'NONE', *, *, #5, .T. ) ;
#322 = CARTESIAN_POINT ( 'NONE',  ( -4.367779596267662434E-06, 0.000000000000000000, -1.224646799147354733E-18 ) ) ;
#323 = EDGE_CURVE ( 'NONE', #232, #37, #285, .T. ) ;
#324 = CARTESIAN_POINT ( 'NONE',  ( -4.367779596267662434E-06, -0.01000000000000000021, -1.224646799147354733E-18 ) ) ;
#325 = VECTOR ( 'NONE', #241, 1.000000000000000000 ) ;
#326 = CARTESIAN_POINT ( 'NONE',  ( 0.000000000000000000, -0.004000000000000000083, 0.000000000000000000 ) ) ;
#327 = CARTESIAN_POINT ( 'NONE',  ( -2.449293598294706384E-18, 0.000000000000000000, -0.02000000000000000042 ) ) ;
#328 = UNCERTAINTY_MEASURE_WITH_UNIT (LENGTH_MEASURE( 1.000000000000000082E-05 ), #331, 'distance_accuracy_value', 'NONE');
#329 = LINE ( 'NONE', #59, #154 ) ;
#330 = EDGE_CURVE ( 'NONE', #282, #72, #62, .T. ) ;
#331 =( LENGTH_UNIT ( ) NAMED_UNIT ( * ) SI_UNIT ( $, .METRE. ) );
#332 = ORIENTED_EDGE ( 'NONE', *, *, #163, .T. ) ;
#333 = EDGE_CURVE ( 'NONE', #291, #118, #93, .T. ) ;
#334 = ORIENTED_EDGE ( 'NONE', *, *, #81, .T. ) ;
#335 = CARTESIAN_POINT ( 'NONE',  ( 0.01098421929742037298, -0.004000000000000000083, 0.005966315984439469859 ) ) ;
#336 = VERTEX_POINT ( 'NONE', #199 ) ;
#337 = VERTEX_POINT ( 'NONE', #71 ) ;
#338 = SURFACE_SIDE_STYLE ('',( #294 ) ) ;
#339 = VERTEX_POINT ( 'NONE', #43 ) ;
#340 = DIRECTION ( 'NONE',  ( -0.000000000000000000, 1.000000000000000000, -0.000000000000000000 ) ) ;
#341 = VECTOR ( 'NONE', #270, 1.000000000000000000 ) ;
#342 = CARTESIAN_POINT ( 'NONE',  ( 0.000000000000000000, 0.000000000000000000, 0.000000000000000000 ) ) ;
#343 = CARTESIAN_POINT ( 'NONE',  ( 0.000000000000000000, 0.000000000000000000, 0.000000000000000000 ) ) ;
#344 = ORIENTED_EDGE ( 'NONE', *, *, #222, .T. ) ;
#345 = CIRCLE ( 'NONE', #42, 0.02000000000000000042 ) ;
#346 = ORIENTED_EDGE ( 'NONE', *, *, #40, .F. ) ;
ENDSEC;
END-ISO-10303-21;
