ISO-10303-21;
HEADER;
FILE_DESCRIPTION( ( 'STEP AP214' ), '1' );
FILE_NAME( 'F:/MS/CAD/_BIBLIOTHEEK/Lineaircomponenten/Voorzet afdichting/VD-20AJ.stp', '2010-08-03T13:08:22', ( ' ' ), ( ' ' ), 'XStep 1.0', ' ', ' ' );
FILE_SCHEMA( ( 'CONFIG_CONTROL_DESIGN)   ( )' ) );
ENDSEC;
DATA;
#1 = MECHANICAL_DESIGN_GEOMETRIC_PRESENTATION_REPRESENTATION( ' ', ( #10, #11, #12, #13, #14, #15 ), #6 );
#2 = PRODUCT_DEFINITION_CONTEXT( '', #16, 'design' );
#3 = APPLICATION_PROTOCOL_DEFINITION( 'INTERNATIONAL STANDARD', 'automotive_design', 1994, #16 );
#4 = PRODUCT_CATEGORY_RELATIONSHIP( 'NONE', 'NONE', #17, #18 );
#5 = SHAPE_DEFINITION_REPRESENTATION( #19, #20 );
#6 =  ( GEOMETRIC_REPRESENTATION_CONTEXT( 3 )GLOBAL_UNCERTAINTY_ASSIGNED_CONTEXT( ( #23 ) )GLOBAL_UNIT_ASSIGNED_CONTEXT( ( #25, #26, #27 ) )REPRESENTATION_CONTEXT( 'NONE', 'WORKSPACE' ) );
#10 = STYLED_ITEM( '', ( #29 ), #30 );
#11 = STYLED_ITEM( '', ( #31 ), #32 );
#12 = STYLED_ITEM( '', ( #33 ), #34 );
#13 = STYLED_ITEM( '', ( #35 ), #36 );
#14 = STYLED_ITEM( '', ( #37 ), #38 );
#15 = STYLED_ITEM( '', ( #39 ), #40 );
#16 = APPLICATION_CONTEXT( ' ' );
#17 = PRODUCT_CATEGORY( 'part', 'NONE' );
#18 = PRODUCT_RELATED_PRODUCT_CATEGORY( 'detail', ' ', ( #41 ) );
#19 = PRODUCT_DEFINITION_SHAPE( 'NONE', 'NONE', #42 );
#20 = ADVANCED_BREP_SHAPE_REPRESENTATION( '1', ( #43, #44 ), #6 );
#23 = UNCERTAINTY_MEASURE_WITH_UNIT( LENGTH_MEASURE( 1.00000000000000E-006 ), #25, '', '' );
#25 =  ( CONVERSION_BASED_UNIT( 'METRE', #47 )LENGTH_UNIT(  )NAMED_UNIT( #50 ) );
#26 =  ( NAMED_UNIT( #52 )PLANE_ANGLE_UNIT(  )SI_UNIT( $, .RADIAN. ) );
#27 =  ( NAMED_UNIT( #52 )SOLID_ANGLE_UNIT(  )SI_UNIT( $, .STERADIAN. ) );
#29 = PRESENTATION_STYLE_ASSIGNMENT( ( #58 ) );
#30 = ADVANCED_FACE( '', ( #59 ), #60, .F. );
#31 = PRESENTATION_STYLE_ASSIGNMENT( ( #61 ) );
#32 = ADVANCED_FACE( '', ( #62 ), #63, .F. );
#33 = PRESENTATION_STYLE_ASSIGNMENT( ( #64 ) );
#34 = ADVANCED_FACE( '', ( #65 ), #66, .F. );
#35 = PRESENTATION_STYLE_ASSIGNMENT( ( #67 ) );
#36 = ADVANCED_FACE( '', ( #68 ), #69, .F. );
#37 = PRESENTATION_STYLE_ASSIGNMENT( ( #70 ) );
#38 = ADVANCED_FACE( '', ( #71 ), #72, .T. );
#39 = PRESENTATION_STYLE_ASSIGNMENT( ( #73 ) );
#40 = ADVANCED_FACE( '', ( #74 ), #75, .T. );
#41 = PRODUCT( '1', '1', 'PART-1-DESC', ( #76 ) );
#42 = PRODUCT_DEFINITION( 'NONE', 'NONE', #77, #2 );
#43 = MANIFOLD_SOLID_BREP( '1', #78 );
#44 = AXIS2_PLACEMENT_3D( '', #79, #80, #81 );
#47 = LENGTH_MEASURE_WITH_UNIT( LENGTH_MEASURE( 1.00000000000000 ), #82 );
#50 = DIMENSIONAL_EXPONENTS( 1.00000000000000, 0.000000000000000, 0.000000000000000, 0.000000000000000, 0.000000000000000, 0.000000000000000, 0.000000000000000 );
#52 = DIMENSIONAL_EXPONENTS( 0.000000000000000, 0.000000000000000, 0.000000000000000, 0.000000000000000, 0.000000000000000, 0.000000000000000, 0.000000000000000 );
#58 = SURFACE_STYLE_USAGE( .BOTH., #83 );
#59 = FACE_OUTER_BOUND( '', #84, .T. );
#60 = PLANE( '', #85 );
#61 = SURFACE_STYLE_USAGE( .BOTH., #86 );
#62 = FACE_OUTER_BOUND( '', #87, .T. );
#63 = CYLINDRICAL_SURFACE( '', #88, 0.0100000000000000 );
#64 = SURFACE_STYLE_USAGE( .BOTH., #89 );
#65 = FACE_OUTER_BOUND( '', #90, .T. );
#66 = PLANE( '', #91 );
#67 = SURFACE_STYLE_USAGE( .BOTH., #92 );
#68 = FACE_OUTER_BOUND( '', #93, .T. );
#69 = PLANE( '', #94 );
#70 = SURFACE_STYLE_USAGE( .BOTH., #95 );
#71 = FACE_OUTER_BOUND( '', #96, .T. );
#72 = CYLINDRICAL_SURFACE( '', #97, 0.0160000000000000 );
#73 = SURFACE_STYLE_USAGE( .BOTH., #98 );
#74 = FACE_OUTER_BOUND( '', #99, .T. );
#75 = PLANE( '', #100 );
#76 = PRODUCT_CONTEXT( '', #16, 'mechanical' );
#77 = PRODUCT_DEFINITION_FORMATION_WITH_SPECIFIED_SOURCE( ' ', 'NONE', #41, .NOT_KNOWN. );
#78 = CLOSED_SHELL( '', ( #38, #34, #36, #32, #40, #30 ) );
#79 = CARTESIAN_POINT( '', ( 0.000000000000000, 0.000000000000000, 0.000000000000000 ) );
#80 = DIRECTION( '', ( 0.000000000000000, 0.000000000000000, 1.00000000000000 ) );
#81 = DIRECTION( '', ( 1.00000000000000, 0.000000000000000, 0.000000000000000 ) );
#82 =  ( NAMED_UNIT( #50 )LENGTH_UNIT(  )SI_UNIT( $, .METRE. ) );
#83 = SURFACE_SIDE_STYLE( '', ( #102 ) );
#84 = EDGE_LOOP( '', ( #103, #104, #105, #106 ) );
#85 = AXIS2_PLACEMENT_3D( '', #107, #108, #109 );
#86 = SURFACE_SIDE_STYLE( '', ( #110 ) );
#87 = EDGE_LOOP( '', ( #111, #112, #113, #114 ) );
#88 = AXIS2_PLACEMENT_3D( '', #115, #116, #117 );
#89 = SURFACE_SIDE_STYLE( '', ( #118 ) );
#90 = EDGE_LOOP( '', ( #119, #120, #121, #122 ) );
#91 = AXIS2_PLACEMENT_3D( '', #123, #124, #125 );
#92 = SURFACE_SIDE_STYLE( '', ( #126 ) );
#93 = EDGE_LOOP( '', ( #127, #128, #129, #130 ) );
#94 = AXIS2_PLACEMENT_3D( '', #131, #132, #133 );
#95 = SURFACE_SIDE_STYLE( '', ( #134 ) );
#96 = EDGE_LOOP( '', ( #135, #136, #137, #138 ) );
#97 = AXIS2_PLACEMENT_3D( '', #139, #140, #141 );
#98 = SURFACE_SIDE_STYLE( '', ( #142 ) );
#99 = EDGE_LOOP( '', ( #143, #144, #145, #146 ) );
#100 = AXIS2_PLACEMENT_3D( '', #147, #148, #149 );
#102 = SURFACE_STYLE_FILL_AREA( #150 );
#103 = ORIENTED_EDGE( '', *, *, #151, .T. );
#104 = ORIENTED_EDGE( '', *, *, #152, .T. );
#105 = ORIENTED_EDGE( '', *, *, #153, .T. );
#106 = ORIENTED_EDGE( '', *, *, #154, .F. );
#107 = CARTESIAN_POINT( '', ( 2.14306111918917E-019, 0.0414312667664022, -0.00100000000000000 ) );
#108 = DIRECTION( '', ( 0.000000000000000, 0.000000000000000, -1.00000000000000 ) );
#109 = DIRECTION( '', ( -1.00000000000000, 0.000000000000000, 0.000000000000000 ) );
#110 = SURFACE_STYLE_FILL_AREA( #155 );
#111 = ORIENTED_EDGE( '', *, *, #156, .F. );
#112 = ORIENTED_EDGE( '', *, *, #154, .T. );
#113 = ORIENTED_EDGE( '', *, *, #157, .T. );
#114 = ORIENTED_EDGE( '', *, *, #158, .T. );
#115 = CARTESIAN_POINT( '', ( 0.000000000000000, -0.00400000000000000, 0.000000000000000 ) );
#116 = DIRECTION( '', ( 0.000000000000000, -1.00000000000000, 0.000000000000000 ) );
#117 = DIRECTION( '', ( 0.000000000000000, 0.000000000000000, 1.00000000000000 ) );
#118 = SURFACE_STYLE_FILL_AREA( #159 );
#119 = ORIENTED_EDGE( '', *, *, #160, .T. );
#120 = ORIENTED_EDGE( '', *, *, #161, .T. );
#121 = ORIENTED_EDGE( '', *, *, #162, .T. );
#122 = ORIENTED_EDGE( '', *, *, #158, .F. );
#123 = CARTESIAN_POINT( '', ( 0.0160000000000000, 0.0414312667664022, 0.00100000000000000 ) );
#124 = DIRECTION( '', ( -8.13151629364128E-017, 0.000000000000000, 1.00000000000000 ) );
#125 = DIRECTION( '', ( 1.00000000000000, 0.000000000000000, 8.13151629364128E-017 ) );
#126 = SURFACE_STYLE_FILL_AREA( #163 );
#127 = ORIENTED_EDGE( '', *, *, #164, .F. );
#128 = ORIENTED_EDGE( '', *, *, #151, .F. );
#129 = ORIENTED_EDGE( '', *, *, #156, .T. );
#130 = ORIENTED_EDGE( '', *, *, #162, .F. );
#131 = CARTESIAN_POINT( '', ( 0.000000000000000, -0.00400000000000000, 0.000000000000000 ) );
#132 = DIRECTION( '', ( 0.000000000000000, 1.00000000000000, 0.000000000000000 ) );
#133 = DIRECTION( '', ( 0.000000000000000, 0.000000000000000, 1.00000000000000 ) );
#134 = SURFACE_STYLE_FILL_AREA( #165 );
#135 = ORIENTED_EDGE( '', *, *, #152, .F. );
#136 = ORIENTED_EDGE( '', *, *, #164, .T. );
#137 = ORIENTED_EDGE( '', *, *, #161, .F. );
#138 = ORIENTED_EDGE( '', *, *, #166, .F. );
#139 = CARTESIAN_POINT( '', ( 0.000000000000000, -0.00400000000000000, 0.000000000000000 ) );
#140 = DIRECTION( '', ( 0.000000000000000, -1.00000000000000, 0.000000000000000 ) );
#141 = DIRECTION( '', ( 0.000000000000000, 0.000000000000000, 1.00000000000000 ) );
#142 = SURFACE_STYLE_FILL_AREA( #167 );
#143 = ORIENTED_EDGE( '', *, *, #153, .F. );
#144 = ORIENTED_EDGE( '', *, *, #166, .T. );
#145 = ORIENTED_EDGE( '', *, *, #160, .F. );
#146 = ORIENTED_EDGE( '', *, *, #157, .F. );
#147 = CARTESIAN_POINT( '', ( 0.000000000000000, 0.000000000000000, 0.000000000000000 ) );
#148 = DIRECTION( '', ( 0.000000000000000, 1.00000000000000, 0.000000000000000 ) );
#149 = DIRECTION( '', ( 0.000000000000000, 0.000000000000000, 1.00000000000000 ) );
#150 = FILL_AREA_STYLE( '', ( #168 ) );
#151 = EDGE_CURVE( '', #169, #170, #171, .T. );
#152 = EDGE_CURVE( '', #170, #172, #173, .T. );
#153 = EDGE_CURVE( '', #172, #174, #175, .T. );
#154 = EDGE_CURVE( '', #169, #174, #176, .T. );
#155 = FILL_AREA_STYLE( '', ( #177 ) );
#156 = EDGE_CURVE( '', #169, #178, #179, .T. );
#157 = EDGE_CURVE( '', #174, #180, #181, .T. );
#158 = EDGE_CURVE( '', #180, #178, #182, .F. );
#159 = FILL_AREA_STYLE( '', ( #183 ) );
#160 = EDGE_CURVE( '', #180, #184, #185, .T. );
#161 = EDGE_CURVE( '', #184, #186, #187, .F. );
#162 = EDGE_CURVE( '', #186, #178, #188, .T. );
#163 = FILL_AREA_STYLE( '', ( #189 ) );
#164 = EDGE_CURVE( '', #170, #186, #190, .T. );
#165 = FILL_AREA_STYLE( '', ( #191 ) );
#166 = EDGE_CURVE( '', #172, #184, #192, .T. );
#167 = FILL_AREA_STYLE( '', ( #193 ) );
#168 = FILL_AREA_STYLE_COLOUR( '', #194 );
#169 = VERTEX_POINT( '', #195 );
#170 = VERTEX_POINT( '', #196 );
#171 = LINE( '', #197, #198 );
#172 = VERTEX_POINT( '', #199 );
#173 = LINE( '', #200, #201 );
#174 = VERTEX_POINT( '', #202 );
#175 = LINE( '', #203, #204 );
#176 = LINE( '', #205, #206 );
#177 = FILL_AREA_STYLE_COLOUR( '', #207 );
#178 = VERTEX_POINT( '', #208 );
#179 = CIRCLE( '', #209, 0.0100000000000000 );
#180 = VERTEX_POINT( '', #210 );
#181 = CIRCLE( '', #211, 0.0100000000000000 );
#182 = LINE( '', #212, #213 );
#183 = FILL_AREA_STYLE_COLOUR( '', #214 );
#184 = VERTEX_POINT( '', #215 );
#185 = LINE( '', #216, #217 );
#186 = VERTEX_POINT( '', #218 );
#187 = LINE( '', #219, #220 );
#188 = LINE( '', #221, #222 );
#189 = FILL_AREA_STYLE_COLOUR( '', #223 );
#190 = CIRCLE( '', #224, 0.0160000000000000 );
#191 = FILL_AREA_STYLE_COLOUR( '', #225 );
#192 = CIRCLE( '', #226, 0.0160000000000000 );
#193 = FILL_AREA_STYLE_COLOUR( '', #227 );
#194 = COLOUR_RGB( '', 0.752941250801086, 0.752941250801086, 0.752941250801086 );
#195 = CARTESIAN_POINT( '', ( 0.00994987437106620, -0.00400000000000000, -0.00100000000000000 ) );
#196 = CARTESIAN_POINT( '', ( 0.0159687194226713, -0.00400000000000000, -0.00100000000000000 ) );
#197 = CARTESIAN_POINT( '', ( 2.14306111918917E-019, -0.00400000000000000, -0.00100000000000000 ) );
#198 = VECTOR( '', #228, 1.00000000000000 );
#199 = CARTESIAN_POINT( '', ( 0.0159687194226713, 0.000000000000000, -0.00100000000000000 ) );
#200 = CARTESIAN_POINT( '', ( 0.0159687194226713, -0.00400000000000000, -0.00100000000000000 ) );
#201 = VECTOR( '', #229, 1.00000000000000 );
#202 = CARTESIAN_POINT( '', ( 0.00994987437106620, 0.000000000000000, -0.00100000000000000 ) );
#203 = CARTESIAN_POINT( '', ( 0.000000000000000, 0.000000000000000, -0.00100000000000000 ) );
#204 = VECTOR( '', #230, 1.00000000000000 );
#205 = CARTESIAN_POINT( '', ( 0.00994987437106620, -0.00400000000000000, -0.00100000000000000 ) );
#206 = VECTOR( '', #231, 1.00000000000000 );
#207 = COLOUR_RGB( '', 0.752941250801086, 0.752941250801086, 0.752941250801086 );
#208 = CARTESIAN_POINT( '', ( 0.00994987437106620, -0.00400000000000000, 0.00100000000000000 ) );
#209 = AXIS2_PLACEMENT_3D( '', #232, #233, #234 );
#210 = CARTESIAN_POINT( '', ( 0.00994987437106620, 0.000000000000000, 0.00100000000000000 ) );
#211 = AXIS2_PLACEMENT_3D( '', #235, #236, #237 );
#212 = CARTESIAN_POINT( '', ( 0.00994987437106620, -0.00400000000000000, 0.00100000000000000 ) );
#213 = VECTOR( '', #238, 1.00000000000000 );
#214 = COLOUR_RGB( '', 0.752941250801086, 0.752941250801086, 0.752941250801086 );
#215 = CARTESIAN_POINT( '', ( 0.0159687194226713, 0.000000000000000, 0.00100000000000000 ) );
#216 = CARTESIAN_POINT( '', ( -8.13151629364129E-020, 0.000000000000000, 0.00100000000000000 ) );
#217 = VECTOR( '', #239, 1.00000000000000 );
#218 = CARTESIAN_POINT( '', ( 0.0159687194226713, -0.00400000000000000, 0.00100000000000000 ) );
#219 = CARTESIAN_POINT( '', ( 0.0159687194226713, -0.00400000000000000, 0.00100000000000000 ) );
#220 = VECTOR( '', #240, 1.00000000000000 );
#221 = CARTESIAN_POINT( '', ( 0.0160000000000000, -0.00400000000000000, 0.00100000000000000 ) );
#222 = VECTOR( '', #241, 1.00000000000000 );
#223 = COLOUR_RGB( '', 0.752941250801086, 0.752941250801086, 0.752941250801086 );
#224 = AXIS2_PLACEMENT_3D( '', #242, #243, #244 );
#225 = COLOUR_RGB( '', 0.752941250801086, 0.752941250801086, 0.752941250801086 );
#226 = AXIS2_PLACEMENT_3D( '', #245, #246, #247 );
#227 = COLOUR_RGB( '', 0.752941250801086, 0.752941250801086, 0.752941250801086 );
#228 = DIRECTION( '', ( 1.00000000000000, 0.000000000000000, 0.000000000000000 ) );
#229 = DIRECTION( '', ( 0.000000000000000, 1.00000000000000, 0.000000000000000 ) );
#230 = DIRECTION( '', ( -1.00000000000000, 0.000000000000000, 0.000000000000000 ) );
#231 = DIRECTION( '', ( 0.000000000000000, 1.00000000000000, 0.000000000000000 ) );
#232 = CARTESIAN_POINT( '', ( 0.000000000000000, -0.00400000000000000, 0.000000000000000 ) );
#233 = DIRECTION( '', ( 0.000000000000000, 1.00000000000000, 0.000000000000000 ) );
#234 = DIRECTION( '', ( 1.00000000000000, 0.000000000000000, 0.000000000000000 ) );
#235 = CARTESIAN_POINT( '', ( 0.000000000000000, 0.000000000000000, 0.000000000000000 ) );
#236 = DIRECTION( '', ( 0.000000000000000, 1.00000000000000, 0.000000000000000 ) );
#237 = DIRECTION( '', ( 1.00000000000000, 0.000000000000000, 0.000000000000000 ) );
#238 = DIRECTION( '', ( 0.000000000000000, 1.00000000000000, 0.000000000000000 ) );
#239 = DIRECTION( '', ( 1.00000000000000, 0.000000000000000, 8.13151629364128E-017 ) );
#240 = DIRECTION( '', ( 0.000000000000000, 1.00000000000000, 0.000000000000000 ) );
#241 = DIRECTION( '', ( -1.00000000000000, 0.000000000000000, -8.13151629364128E-017 ) );
#242 = CARTESIAN_POINT( '', ( 0.000000000000000, -0.00400000000000000, 0.000000000000000 ) );
#243 = DIRECTION( '', ( 0.000000000000000, 1.00000000000000, 0.000000000000000 ) );
#244 = DIRECTION( '', ( 1.00000000000000, 0.000000000000000, 0.000000000000000 ) );
#245 = CARTESIAN_POINT( '', ( 0.000000000000000, 0.000000000000000, 0.000000000000000 ) );
#246 = DIRECTION( '', ( 0.000000000000000, 1.00000000000000, 0.000000000000000 ) );
#247 = DIRECTION( '', ( 1.00000000000000, 0.000000000000000, 0.000000000000000 ) );
ENDSEC;
END-ISO-10303-21;
