ISO-10303-21;
HEADER;
FILE_DESCRIPTION (( 'STEP AP214' ),
    '1' );
FILE_NAME ('BRM 28x5.step',
    '2020-09-08T10:23:27',
    ( '' ),
    ( '' ),
    'SwSTEP 2.0',
    'SolidWorks 2020',
    '' );
FILE_SCHEMA (( 'AUTOMOTIVE_DESIGN' ));
ENDSEC;

DATA;
#1 = DIRECTION ( 'NONE',  ( -1.000000000000000000, 0.0000000000000000000, -0.0000000000000000000 ) ) ;
#2 = CIRCLE ( 'NONE', #115, 14.49999999999999289 ) ;
#3 = CARTESIAN_POINT ( 'NONE',  ( -46.22222222222222143, 0.0000000000000000000, 0.0000000000000000000 ) ) ;
#4 = DIRECTION ( 'NONE',  ( 0.0000000000000000000, 0.0000000000000000000, 1.000000000000000000 ) ) ;
#5 = EDGE_CURVE ( 'NONE', #189, #282, #82, .T. ) ;
#6 = FACE_OUTER_BOUND ( 'NONE', #135, .T. ) ;
#7 = VERTEX_POINT ( 'NONE', #70 ) ;
#8 = SURFACE_STYLE_USAGE ( .BOTH. , #37 ) ;
#9 = FACE_OUTER_BOUND ( 'NONE', #191, .T. ) ;
#10 =( NAMED_UNIT ( * ) PLANE_ANGLE_UNIT ( ) SI_UNIT ( $, .RADIAN. ) );
#11 = DIRECTION ( 'NONE',  ( -1.000000000000000000, -0.0000000000000000000, -0.0000000000000000000 ) ) ;
#12 = AXIS2_PLACEMENT_3D ( 'NONE', #3, #270, #92 ) ;
#13 = APPLICATION_CONTEXT ( 'automotive_design' ) ;
#14 = FACE_BOUND ( 'NONE', #66, .T. ) ;
#15 = CARTESIAN_POINT ( 'NONE',  ( -6.017094017094014369, 1.775737858763663593E-15, -14.50000000000001243 ) ) ;
#16 = AXIS2_PLACEMENT_3D ( 'NONE', #116, #195, #290 ) ;
#17 = ORIENTED_EDGE ( 'NONE', *, *, #22, .T. ) ;
#18 = DIRECTION ( 'NONE',  ( 0.0000000000000000000, 0.0000000000000000000, 1.000000000000000000 ) ) ;
#19 = ORIENTED_EDGE ( 'NONE', *, *, #273, .F. ) ;
#20 = CIRCLE ( 'NONE', #284, 14.50000000000001243 ) ;
#21 = ORIENTED_EDGE ( 'NONE', *, *, #303, .T. ) ;
#22 = EDGE_CURVE ( 'NONE', #112, #169, #245, .T. ) ;
#23 = AXIS2_PLACEMENT_3D ( 'NONE', #226, #38, #81 ) ;
#24 = DIRECTION ( 'NONE',  ( -1.000000000000000000, 0.0000000000000000000, 0.0000000000000000000 ) ) ;
#25 = PRODUCT ( 'BRM 28x5', 'BRM 28x5', '', ( #109 ) ) ;
#26 = CARTESIAN_POINT ( 'NONE',  ( 49.98290598290599007, 30.00000000000000000, 0.0000000000000000000 ) ) ;
#27 = DIRECTION ( 'NONE',  ( 0.7071067811865439090, 0.0000000000000000000, -0.7071067811865512365 ) ) ;
#28 = CARTESIAN_POINT ( 'NONE',  ( -5.517094017093993052, 0.0000000000000000000, 14.00000000000000000 ) ) ;
#29 = SURFACE_STYLE_FILL_AREA ( #294 ) ;
#30 = APPLICATION_PROTOCOL_DEFINITION ( 'draft international standard', 'automotive_design', 1998, #13 ) ;
#31 = CARTESIAN_POINT ( 'NONE',  ( 49.98290598290599007, 0.0000000000000000000, 0.0000000000000000000 ) ) ;
#32 = ADVANCED_FACE ( 'NONE', ( #242 ), #260, .F. ) ;
#33 = CARTESIAN_POINT ( 'NONE',  ( -46.22222222222222143, 3.673940397442059178E-15, -30.00000000000000000 ) ) ;
#34 = CARTESIAN_POINT ( 'NONE',  ( -6.017094017094014369, 0.0000000000000000000, 0.0000000000000000000 ) ) ;
#35 = CARTESIAN_POINT ( 'NONE',  ( -6.017094017094014369, 0.0000000000000000000, 0.0000000000000000000 ) ) ;
#36 = CIRCLE ( 'NONE', #178, 30.00000000000000000 ) ;
#37 = SURFACE_SIDE_STYLE ('',( #179 ) ) ;
#38 = DIRECTION ( 'NONE',  ( -1.000000000000000000, -0.0000000000000000000, -0.0000000000000000000 ) ) ;
#39 = DIRECTION ( 'NONE',  ( 0.0000000000000000000, 0.0000000000000000000, 1.000000000000000000 ) ) ;
#40 = VECTOR ( 'NONE', #57, 999.9999999999998863 ) ;
#41 = VERTEX_POINT ( 'NONE', #314 ) ;
#42 = ORIENTED_EDGE ( 'NONE', *, *, #253, .F. ) ;
#43 = ORIENTED_EDGE ( 'NONE', *, *, #93, .T. ) ;
#44 = ADVANCED_FACE ( 'NONE', ( #173, #288 ), #268, .F. ) ;
#45 =( NAMED_UNIT ( * ) SI_UNIT ( $, .STERADIAN. ) SOLID_ANGLE_UNIT ( ) );
#46 = STYLED_ITEM ( 'NONE', ( #244 ), #48 ) ;
#47 =( NAMED_UNIT ( * ) PLANE_ANGLE_UNIT ( ) SI_UNIT ( $, .RADIAN. ) );
#48 = MANIFOLD_SOLID_BREP ( 'Chamfer1', #193 ) ;
#49 = CARTESIAN_POINT ( 'NONE',  ( -46.22222222222222143, 0.0000000000000000000, 0.0000000000000000000 ) ) ;
#50 = VECTOR ( 'NONE', #27, 999.9999999999998863 ) ;
#51 =( LENGTH_UNIT ( ) NAMED_UNIT ( * ) SI_UNIT ( .MILLI., .METRE. ) );
#52 = CARTESIAN_POINT ( 'NONE',  ( -5.517094017093993052, 1.714505518806294638E-15, -14.00000000000000000 ) ) ;
#53 = DIRECTION ( 'NONE',  ( 0.0000000000000000000, 0.0000000000000000000, 1.000000000000000000 ) ) ;
#54 =( NAMED_UNIT ( * ) PLANE_ANGLE_UNIT ( ) SI_UNIT ( $, .RADIAN. ) );
#55 = DIRECTION ( 'NONE',  ( -1.000000000000000000, 0.0000000000000000000, 0.0000000000000000000 ) ) ;
#56 = DIRECTION ( 'NONE',  ( 1.000000000000000000, -0.0000000000000000000, -0.0000000000000000000 ) ) ;
#57 = DIRECTION ( 'NONE',  ( 0.7071067811865439090, 8.659560562354978464E-17, 0.7071067811865512365 ) ) ;
#58 = EDGE_CURVE ( 'NONE', #84, #41, #172, .T. ) ;
#59 = DIRECTION ( 'NONE',  ( -1.000000000000000000, -0.0000000000000000000, -0.0000000000000000000 ) ) ;
#60 = ORIENTED_EDGE ( 'NONE', *, *, #5, .F. ) ;
#61 = AXIS2_PLACEMENT_3D ( 'NONE', #78, #131, #227 ) ;
#62 = ORIENTED_EDGE ( 'NONE', *, *, #197, .F. ) ;
#63 = ORIENTED_EDGE ( 'NONE', *, *, #265, .F. ) ;
#64 = EDGE_CURVE ( 'NONE', #7, #310, #118, .T. ) ;
#65 = COLOUR_RGB ( '',0.7921568627450980005, 0.8196078431372548767, 0.9333333333333333481 ) ;
#66 = EDGE_LOOP ( 'NONE', ( #43, #286 ) ) ;
#67 = SURFACE_SIDE_STYLE ('',( #29 ) ) ;
#68 = CARTESIAN_POINT ( 'NONE',  ( -6.017094017094014369, 0.0000000000000000000, 0.0000000000000000000 ) ) ;
#69 = AXIS2_PLACEMENT_3D ( 'NONE', #105, #185, #97 ) ;
#70 = CARTESIAN_POINT ( 'NONE',  ( 49.48290598290599718, 0.0000000000000000000, 14.00000000000000000 ) ) ;
#71 = APPLICATION_CONTEXT ( 'automotive_design' ) ;
#72 = CYLINDRICAL_SURFACE ( 'NONE', #120, 30.00000000000000000 ) ;
#73 = EDGE_CURVE ( 'NONE', #7, #112, #215, .T. ) ;
#74 = SURFACE_STYLE_USAGE ( .BOTH. , #67 ) ;
#75 = AXIS2_PLACEMENT_3D ( 'NONE', #68, #114, #264 ) ;
#76 = CARTESIAN_POINT ( 'NONE',  ( -46.22222222222222143, 0.0000000000000000000, 0.0000000000000000000 ) ) ;
#77 = PLANE ( 'NONE',  #104 ) ;
#78 = CARTESIAN_POINT ( 'NONE',  ( 49.98290598290599007, 0.0000000000000000000, 0.0000000000000000000 ) ) ;
#79 = CARTESIAN_POINT ( 'NONE',  ( 49.98290598290599007, 0.0000000000000000000, -14.49999999999999289 ) ) ;
#80 = ADVANCED_FACE ( 'NONE', ( #171 ), #72, .T. ) ;
#81 = DIRECTION ( 'NONE',  ( 0.0000000000000000000, 0.0000000000000000000, 1.000000000000000000 ) ) ;
#82 = CIRCLE ( 'NONE', #75, 30.00000000000000000 ) ;
#83 = CARTESIAN_POINT ( 'NONE',  ( 49.98290598290599007, 0.0000000000000000000, 0.0000000000000000000 ) ) ;
#84 = VERTEX_POINT ( 'NONE', #247 ) ;
#85 = ORIENTED_EDGE ( 'NONE', *, *, #303, .F. ) ;
#86 = SHAPE_DEFINITION_REPRESENTATION ( #146, #175 ) ;
#87 = ORIENTED_EDGE ( 'NONE', *, *, #73, .T. ) ;
#88 = EDGE_CURVE ( 'NONE', #112, #95, #123, .T. ) ;
#89 = ORIENTED_EDGE ( 'NONE', *, *, #287, .F. ) ;
#90 = AXIS2_PLACEMENT_3D ( 'NONE', #76, #11, #232 ) ;
#91 = CARTESIAN_POINT ( 'NONE',  ( -5.517094017093993052, 0.0000000000000000000, 0.0000000000000000000 ) ) ;
#92 = DIRECTION ( 'NONE',  ( 0.0000000000000000000, 0.0000000000000000000, 1.000000000000000000 ) ) ;
#93 = EDGE_CURVE ( 'NONE', #258, #165, #237, .T. ) ;
#94 = LINE ( 'NONE', #28, #291 ) ;
#95 = VERTEX_POINT ( 'NONE', #52 ) ;
#96 = PRESENTATION_STYLE_ASSIGNMENT (( #8 ) ) ;
#97 = DIRECTION ( 'NONE',  ( 0.0000000000000000000, 0.0000000000000000000, -1.000000000000000000 ) ) ;
#98 = CIRCLE ( 'NONE', #23, 30.00000000000000000 ) ;
#99 =( LENGTH_UNIT ( ) NAMED_UNIT ( * ) SI_UNIT ( .MILLI., .METRE. ) );
#100 = DIRECTION ( 'NONE',  ( -1.000000000000000000, 0.0000000000000000000, 0.0000000000000000000 ) ) ;
#101 = EDGE_CURVE ( 'NONE', #310, #95, #266, .T. ) ;
#102 = DIRECTION ( 'NONE',  ( -1.000000000000000000, 0.0000000000000000000, 0.0000000000000000000 ) ) ;
#103 = DIRECTION ( 'NONE',  ( 0.0000000000000000000, 0.0000000000000000000, 1.000000000000000000 ) ) ;
#104 = AXIS2_PLACEMENT_3D ( 'NONE', #152, #300, #277 ) ;
#105 = CARTESIAN_POINT ( 'NONE',  ( 49.98290598290599007, 0.0000000000000000000, 0.0000000000000000000 ) ) ;
#106 = PRODUCT_RELATED_PRODUCT_CATEGORY ( 'part', '', ( #25 ) ) ;
#107 = ORIENTED_EDGE ( 'NONE', *, *, #192, .F. ) ;
#108 = EDGE_LOOP ( 'NONE', ( #186, #312, #214, #212 ) ) ;
#109 = PRODUCT_CONTEXT ( 'NONE', #13, 'mechanical' ) ;
#110 = ORIENTED_EDGE ( 'NONE', *, *, #174, .T. ) ;
#111 = ADVANCED_FACE ( 'NONE', ( #157 ), #275, .T. ) ;
#112 = VERTEX_POINT ( 'NONE', #250 ) ;
#113 = ORIENTED_EDGE ( 'NONE', *, *, #236, .F. ) ;
#114 = DIRECTION ( 'NONE',  ( -1.000000000000000000, -0.0000000000000000000, -0.0000000000000000000 ) ) ;
#115 = AXIS2_PLACEMENT_3D ( 'NONE', #83, #59, #39 ) ;
#116 = CARTESIAN_POINT ( 'NONE',  ( 49.48290598290599718, 0.0000000000000000000, 0.0000000000000000000 ) ) ;
#117 = ORIENTED_EDGE ( 'NONE', *, *, #58, .T. ) ;
#118 = LINE ( 'NONE', #293, #164 ) ;
#119 = MECHANICAL_DESIGN_GEOMETRIC_PRESENTATION_REPRESENTATION (  '', ( #46 ), #302 ) ;
#120 = AXIS2_PLACEMENT_3D ( 'NONE', #49, #176, #149 ) ;
#121 = MECHANICAL_DESIGN_GEOMETRIC_PRESENTATION_REPRESENTATION (  '', ( #261 ), #166 ) ;
#122 =( NAMED_UNIT ( * ) SI_UNIT ( $, .STERADIAN. ) SOLID_ANGLE_UNIT ( ) );
#123 = LINE ( 'NONE', #224, #241 ) ;
#124 = FILL_AREA_STYLE_COLOUR ( '', #304 ) ;
#125 = CARTESIAN_POINT ( 'NONE',  ( 49.98290598290599007, 1.775737858763661226E-15, 14.49999999999999289 ) ) ;
#126 = DIRECTION ( 'NONE',  ( -0.7071067811865536790, 8.659560562354857670E-17, -0.7071067811865414665 ) ) ;
#127 = DIRECTION ( 'NONE',  ( -1.000000000000000000, -0.0000000000000000000, -0.0000000000000000000 ) ) ;
#128 = AXIS2_PLACEMENT_3D ( 'NONE', #130, #102, #151 ) ;
#129 =( NAMED_UNIT ( * ) SI_UNIT ( $, .STERADIAN. ) SOLID_ANGLE_UNIT ( ) );
#130 = CARTESIAN_POINT ( 'NONE',  ( -5.517094017093993052, 0.0000000000000000000, 0.0000000000000000000 ) ) ;
#131 = DIRECTION ( 'NONE',  ( 1.000000000000000000, -0.0000000000000000000, -0.0000000000000000000 ) ) ;
#132 = CYLINDRICAL_SURFACE ( 'NONE', #90, 14.00000000000000000 ) ;
#133 = DIRECTION ( 'NONE',  ( 1.000000000000000000, 0.0000000000000000000, 0.0000000000000000000 ) ) ;
#134 = ADVANCED_FACE ( 'NONE', ( #209 ), #132, .F. ) ;
#135 = EDGE_LOOP ( 'NONE', ( #107, #63, #17, #113 ) ) ;
#136 = ORIENTED_EDGE ( 'NONE', *, *, #158, .T. ) ;
#137 = EDGE_CURVE ( 'NONE', #95, #310, #210, .T. ) ;
#138 = EDGE_LOOP ( 'NONE', ( #136, #263 ) ) ;
#139 =( GEOMETRIC_REPRESENTATION_CONTEXT ( 3 ) GLOBAL_UNCERTAINTY_ASSIGNED_CONTEXT ( ( #167 ) ) GLOBAL_UNIT_ASSIGNED_CONTEXT ( ( #51, #10, #122 ) ) REPRESENTATION_CONTEXT ( 'NONE', 'WORKASPACE' ) );
#140 = ORIENTED_EDGE ( 'NONE', *, *, #93, .F. ) ;
#141 = ORIENTED_EDGE ( 'NONE', *, *, #88, .T. ) ;
#142 = ADVANCED_FACE ( 'NONE', ( #231 ), #313, .F. ) ;
#143 = CARTESIAN_POINT ( 'NONE',  ( 49.98290598290599007, 0.0000000000000000000, 0.0000000000000000000 ) ) ;
#144 = VECTOR ( 'NONE', #274, 1000.000000000000000 ) ;
#145 = DIRECTION ( 'NONE',  ( -1.000000000000000000, -0.0000000000000000000, -0.0000000000000000000 ) ) ;
#146 = PRODUCT_DEFINITION_SHAPE ( 'NONE', 'NONE',  #278 ) ;
#147 = DIRECTION ( 'NONE',  ( 0.0000000000000000000, 0.0000000000000000000, 1.000000000000000000 ) ) ;
#148 = DIRECTION ( 'NONE',  ( -0.7071067811865536790, 0.0000000000000000000, 0.7071067811865414665 ) ) ;
#149 = DIRECTION ( 'NONE',  ( 0.0000000000000000000, 0.0000000000000000000, 1.000000000000000000 ) ) ;
#150 = CONICAL_SURFACE ( 'NONE', #69, 14.49999999999999289, 0.7853981633974536081 ) ;
#151 = DIRECTION ( 'NONE',  ( 0.0000000000000000000, 0.0000000000000000000, -1.000000000000000000 ) ) ;
#152 = CARTESIAN_POINT ( 'NONE',  ( -6.017094017094014369, 14.00000000000000000, 0.0000000000000000000 ) ) ;
#153 = EDGE_CURVE ( 'NONE', #165, #258, #20, .T. ) ;
#154 = DIRECTION ( 'NONE',  ( -1.000000000000000000, -0.0000000000000000000, -0.0000000000000000000 ) ) ;
#155 = CONICAL_SURFACE ( 'NONE', #61, 14.49999999999999289, 0.7853981633974536081 ) ;
#156 = CARTESIAN_POINT ( 'NONE',  ( -6.017094017094014369, 0.0000000000000000000, 30.00000000000000000 ) ) ;
#157 = FACE_OUTER_BOUND ( 'NONE', #188, .T. ) ;
#158 = EDGE_CURVE ( 'NONE', #169, #280, #256, .T. ) ;
#159 = DIRECTION ( 'NONE',  ( 0.0000000000000000000, 0.0000000000000000000, 1.000000000000000000 ) ) ;
#160 = AXIS2_PLACEMENT_3D ( 'NONE', #31, #272, #53 ) ;
#161 = EDGE_LOOP ( 'NONE', ( #117, #281, #262, #42 ) ) ;
#162 = ORIENTED_EDGE ( 'NONE', *, *, #22, .F. ) ;
#163 = ORIENTED_EDGE ( 'NONE', *, *, #158, .F. ) ;
#164 = VECTOR ( 'NONE', #145, 1000.000000000000000 ) ;
#165 = VERTEX_POINT ( 'NONE', #15 ) ;
#166 =( GEOMETRIC_REPRESENTATION_CONTEXT ( 3 ) GLOBAL_UNCERTAINTY_ASSIGNED_CONTEXT ( ( #190 ) ) GLOBAL_UNIT_ASSIGNED_CONTEXT ( ( #99, #54, #129 ) ) REPRESENTATION_CONTEXT ( 'NONE', 'WORKASPACE' ) );
#167 = UNCERTAINTY_MEASURE_WITH_UNIT (LENGTH_MEASURE( 1.000000000000000082E-05 ), #51, 'distance_accuracy_value', 'NONE');
#168 = ADVANCED_FACE ( 'NONE', ( #14, #298 ), #77, .F. ) ;
#169 = VERTEX_POINT ( 'NONE', #79 ) ;
#170 = EDGE_LOOP ( 'NONE', ( #89, #217, #21, #257 ) ) ;
#171 = FACE_OUTER_BOUND ( 'NONE', #161, .T. ) ;
#172 = CIRCLE ( 'NONE', #229, 30.00000000000000000 ) ;
#173 = FACE_BOUND ( 'NONE', #138, .T. ) ;
#174 = EDGE_CURVE ( 'NONE', #282, #189, #36, .T. ) ;
#175 = ADVANCED_BREP_SHAPE_REPRESENTATION ( 'BRM 28x5', ( #48, #285 ), #139 ) ;
#176 = DIRECTION ( 'NONE',  ( -1.000000000000000000, -0.0000000000000000000, -0.0000000000000000000 ) ) ;
#177 = ORIENTED_EDGE ( 'NONE', *, *, #64, .F. ) ;
#178 = AXIS2_PLACEMENT_3D ( 'NONE', #35, #154, #159 ) ;
#179 = SURFACE_STYLE_FILL_AREA ( #225 ) ;
#180 = DIRECTION ( 'NONE',  ( 0.0000000000000000000, 0.0000000000000000000, -1.000000000000000000 ) ) ;
#181 = DIRECTION ( 'NONE',  ( 0.0000000000000000000, 0.0000000000000000000, 1.000000000000000000 ) ) ;
#182 = CYLINDRICAL_SURFACE ( 'NONE', #12, 14.00000000000000000 ) ;
#183 = CARTESIAN_POINT ( 'NONE',  ( -46.22222222222222143, 0.0000000000000000000, 0.0000000000000000000 ) ) ;
#184 = AXIS2_PLACEMENT_3D ( 'NONE', #183, #228, #103 ) ;
#185 = DIRECTION ( 'NONE',  ( 1.000000000000000000, -0.0000000000000000000, -0.0000000000000000000 ) ) ;
#186 = ORIENTED_EDGE ( 'NONE', *, *, #88, .F. ) ;
#187 = VECTOR ( 'NONE', #126, 1000.000000000000000 ) ;
#188 = EDGE_LOOP ( 'NONE', ( #19, #218, #234, #60 ) ) ;
#189 = VERTEX_POINT ( 'NONE', #301 ) ;
#190 = UNCERTAINTY_MEASURE_WITH_UNIT (LENGTH_MEASURE( 1.000000000000000082E-05 ), #99, 'distance_accuracy_value', 'NONE');
#191 = EDGE_LOOP ( 'NONE', ( #311, #222, #163, #162 ) ) ;
#192 = EDGE_CURVE ( 'NONE', #7, #280, #230, .T. ) ;
#193 = CLOSED_SHELL ( 'NONE', ( #213, #32, #134, #80, #168, #111, #44, #269, #142, #292 ) ) ;
#194 = EDGE_LOOP ( 'NONE', ( #87, #141, #307, #177 ) ) ;
#195 = DIRECTION ( 'NONE',  ( 1.000000000000000000, -0.0000000000000000000, -0.0000000000000000000 ) ) ;
#196 = FILL_AREA_STYLE_COLOUR ( '', #65 ) ;
#197 = EDGE_CURVE ( 'NONE', #41, #84, #98, .T. ) ;
#198 = AXIS2_PLACEMENT_3D ( 'NONE', #91, #24, #4 ) ;
#199 = FACE_OUTER_BOUND ( 'NONE', #108, .T. ) ;
#200 = DIRECTION ( 'NONE',  ( -1.000000000000000000, -0.0000000000000000000, -0.0000000000000000000 ) ) ;
#201 = LINE ( 'NONE', #33, #144 ) ;
#202 = CARTESIAN_POINT ( 'NONE',  ( 49.98290598290599007, 0.0000000000000000000, -14.49999999999999289 ) ) ;
#203 = CARTESIAN_POINT ( 'NONE',  ( -5.517094017093993052, 1.714505518806294638E-15, -14.00000000000000000 ) ) ;
#204 = DIRECTION ( 'NONE',  ( -1.000000000000000000, -0.0000000000000000000, -0.0000000000000000000 ) ) ;
#205 = CIRCLE ( 'NONE', #252, 14.00000000000000000 ) ;
#206 = UNCERTAINTY_MEASURE_WITH_UNIT (LENGTH_MEASURE( 1.000000000000000082E-05 ), #219, 'distance_accuracy_value', 'NONE');
#207 = CARTESIAN_POINT ( 'NONE',  ( -5.517094017093993052, 0.0000000000000000000, 0.0000000000000000000 ) ) ;
#208 = CARTESIAN_POINT ( 'NONE',  ( -6.017094017094014369, 0.0000000000000000000, 0.0000000000000000000 ) ) ;
#209 = FACE_OUTER_BOUND ( 'NONE', #194, .T. ) ;
#210 = CIRCLE ( 'NONE', #259, 14.00000000000000000 ) ;
#211 = LINE ( 'NONE', #305, #296 ) ;
#212 = ORIENTED_EDGE ( 'NONE', *, *, #101, .T. ) ;
#213 = ADVANCED_FACE ( 'NONE', ( #9 ), #150, .F. ) ;
#214 = ORIENTED_EDGE ( 'NONE', *, *, #64, .T. ) ;
#215 = CIRCLE ( 'NONE', #16, 14.00000000000000000 ) ;
#216 = ORIENTED_EDGE ( 'NONE', *, *, #5, .T. ) ;
#217 = ORIENTED_EDGE ( 'NONE', *, *, #101, .F. ) ;
#218 = ORIENTED_EDGE ( 'NONE', *, *, #197, .T. ) ;
#219 =( LENGTH_UNIT ( ) NAMED_UNIT ( * ) SI_UNIT ( .MILLI., .METRE. ) );
#220 = ORIENTED_EDGE ( 'NONE', *, *, #287, .T. ) ;
#221 = EDGE_LOOP ( 'NONE', ( #110, #216 ) ) ;
#222 = ORIENTED_EDGE ( 'NONE', *, *, #192, .T. ) ;
#223 = CARTESIAN_POINT ( 'NONE',  ( 49.48290598290599718, 0.0000000000000000000, 0.0000000000000000000 ) ) ;
#224 = CARTESIAN_POINT ( 'NONE',  ( -46.22222222222222143, 1.714505518806294638E-15, -14.00000000000000000 ) ) ;
#225 = FILL_AREA_STYLE ('',( #124 ) ) ;
#226 = CARTESIAN_POINT ( 'NONE',  ( 49.98290598290599007, 0.0000000000000000000, 0.0000000000000000000 ) ) ;
#227 = DIRECTION ( 'NONE',  ( 0.0000000000000000000, 0.0000000000000000000, -1.000000000000000000 ) ) ;
#228 = DIRECTION ( 'NONE',  ( -1.000000000000000000, -0.0000000000000000000, -0.0000000000000000000 ) ) ;
#229 = AXIS2_PLACEMENT_3D ( 'NONE', #143, #200, #147 ) ;
#230 = LINE ( 'NONE', #125, #40 ) ;
#231 = FACE_OUTER_BOUND ( 'NONE', #170, .T. ) ;
#232 = DIRECTION ( 'NONE',  ( 0.0000000000000000000, 0.0000000000000000000, 1.000000000000000000 ) ) ;
#233 = PRESENTATION_LAYER_ASSIGNMENT (  '', '', ( #46 ) ) ;
#234 = ORIENTED_EDGE ( 'NONE', *, *, #253, .T. ) ;
#235 = CARTESIAN_POINT ( 'NONE',  ( 0.0000000000000000000, 0.0000000000000000000, 0.0000000000000000000 ) ) ;
#236 = EDGE_CURVE ( 'NONE', #280, #169, #2, .T. ) ;
#237 = CIRCLE ( 'NONE', #248, 14.50000000000001243 ) ;
#238 = PRODUCT_DEFINITION_FORMATION_WITH_SPECIFIED_SOURCE ( 'ANY', '', #25, .NOT_KNOWN. ) ;
#239 = EDGE_LOOP ( 'NONE', ( #267, #220, #140, #85 ) ) ;
#240 = DIRECTION ( 'NONE',  ( -0.0000000000000000000, 0.0000000000000000000, 1.000000000000000000 ) ) ;
#241 = VECTOR ( 'NONE', #127, 1000.000000000000000 ) ;
#242 = FACE_OUTER_BOUND ( 'NONE', #239, .T. ) ;
#243 = PRESENTATION_LAYER_ASSIGNMENT (  '', '', ( #261 ) ) ;
#244 = PRESENTATION_STYLE_ASSIGNMENT (( #74 ) ) ;
#245 = LINE ( 'NONE', #202, #50 ) ;
#246 = CARTESIAN_POINT ( 'NONE',  ( -5.517094017093993052, 0.0000000000000000000, 14.00000000000000000 ) ) ;
#247 = CARTESIAN_POINT ( 'NONE',  ( 49.98290598290599007, 0.0000000000000000000, 30.00000000000000000 ) ) ;
#248 = AXIS2_PLACEMENT_3D ( 'NONE', #34, #251, #255 ) ;
#249 = CARTESIAN_POINT ( 'NONE',  ( -5.517094017093993052, 0.0000000000000000000, 0.0000000000000000000 ) ) ;
#250 = CARTESIAN_POINT ( 'NONE',  ( 49.48290598290599718, 1.714505518806294638E-15, -14.00000000000000000 ) ) ;
#251 = DIRECTION ( 'NONE',  ( 1.000000000000000000, 0.0000000000000000000, 0.0000000000000000000 ) ) ;
#252 = AXIS2_PLACEMENT_3D ( 'NONE', #223, #56, #181 ) ;
#253 = EDGE_CURVE ( 'NONE', #84, #282, #211, .T. ) ;
#254 = DIRECTION ( 'NONE',  ( 0.0000000000000000000, 0.0000000000000000000, 1.000000000000000000 ) ) ;
#255 = DIRECTION ( 'NONE',  ( 0.0000000000000000000, 0.0000000000000000000, -1.000000000000000000 ) ) ;
#256 = CIRCLE ( 'NONE', #160, 14.49999999999999289 ) ;
#257 = ORIENTED_EDGE ( 'NONE', *, *, #153, .F. ) ;
#258 = VERTEX_POINT ( 'NONE', #295 ) ;
#259 = AXIS2_PLACEMENT_3D ( 'NONE', #207, #55, #180 ) ;
#260 = CONICAL_SURFACE ( 'NONE', #198, 14.00000000000000000, 0.7853981633974396193 ) ;
#261 = STYLED_ITEM ( 'NONE', ( #96 ), #175 ) ;
#262 = ORIENTED_EDGE ( 'NONE', *, *, #174, .F. ) ;
#263 = ORIENTED_EDGE ( 'NONE', *, *, #236, .T. ) ;
#264 = DIRECTION ( 'NONE',  ( 0.0000000000000000000, 0.0000000000000000000, 1.000000000000000000 ) ) ;
#265 = EDGE_CURVE ( 'NONE', #112, #7, #205, .T. ) ;
#266 = CIRCLE ( 'NONE', #128, 14.00000000000000000 ) ;
#267 = ORIENTED_EDGE ( 'NONE', *, *, #137, .F. ) ;
#268 = PLANE ( 'NONE',  #276 ) ;
#269 = ADVANCED_FACE ( 'NONE', ( #199 ), #182, .F. ) ;
#270 = DIRECTION ( 'NONE',  ( -1.000000000000000000, -0.0000000000000000000, -0.0000000000000000000 ) ) ;
#271 = DIRECTION ( 'NONE',  ( 0.0000000000000000000, 0.0000000000000000000, -1.000000000000000000 ) ) ;
#272 = DIRECTION ( 'NONE',  ( -1.000000000000000000, -0.0000000000000000000, -0.0000000000000000000 ) ) ;
#273 = EDGE_CURVE ( 'NONE', #41, #189, #201, .T. ) ;
#274 = DIRECTION ( 'NONE',  ( -1.000000000000000000, -0.0000000000000000000, -0.0000000000000000000 ) ) ;
#275 = CYLINDRICAL_SURFACE ( 'NONE', #184, 30.00000000000000000 ) ;
#276 = AXIS2_PLACEMENT_3D ( 'NONE', #26, #1, #240 ) ;
#277 = DIRECTION ( 'NONE',  ( 0.0000000000000000000, 0.0000000000000000000, -1.000000000000000000 ) ) ;
#278 = PRODUCT_DEFINITION ( 'UNKNOWN', '', #238, #289 ) ;
#279 = DIRECTION ( 'NONE',  ( 1.000000000000000000, 0.0000000000000000000, 0.0000000000000000000 ) ) ;
#280 = VERTEX_POINT ( 'NONE', #299 ) ;
#281 = ORIENTED_EDGE ( 'NONE', *, *, #273, .T. ) ;
#282 = VERTEX_POINT ( 'NONE', #156 ) ;
#283 = ORIENTED_EDGE ( 'NONE', *, *, #58, .F. ) ;
#284 = AXIS2_PLACEMENT_3D ( 'NONE', #208, #133, #271 ) ;
#285 = AXIS2_PLACEMENT_3D ( 'NONE', #235, #18, #279 ) ;
#286 = ORIENTED_EDGE ( 'NONE', *, *, #153, .T. ) ;
#287 = EDGE_CURVE ( 'NONE', #95, #165, #297, .T. ) ;
#288 = FACE_OUTER_BOUND ( 'NONE', #306, .T. ) ;
#289 = PRODUCT_DEFINITION_CONTEXT ( 'detailed design', #71, 'design' ) ;
#290 = DIRECTION ( 'NONE',  ( 0.0000000000000000000, 0.0000000000000000000, 1.000000000000000000 ) ) ;
#291 = VECTOR ( 'NONE', #148, 1000.000000000000000 ) ;
#292 = ADVANCED_FACE ( 'NONE', ( #6 ), #155, .F. ) ;
#293 = CARTESIAN_POINT ( 'NONE',  ( -46.22222222222222143, 0.0000000000000000000, 14.00000000000000000 ) ) ;
#294 = FILL_AREA_STYLE ('',( #196 ) ) ;
#295 = CARTESIAN_POINT ( 'NONE',  ( -6.017094017094014369, 0.0000000000000000000, 14.50000000000001243 ) ) ;
#296 = VECTOR ( 'NONE', #204, 1000.000000000000000 ) ;
#297 = LINE ( 'NONE', #203, #187 ) ;
#298 = FACE_OUTER_BOUND ( 'NONE', #221, .T. ) ;
#299 = CARTESIAN_POINT ( 'NONE',  ( 49.98290598290599007, 1.775737858763661226E-15, 14.49999999999999289 ) ) ;
#300 = DIRECTION ( 'NONE',  ( 1.000000000000000000, 0.0000000000000000000, 0.0000000000000000000 ) ) ;
#301 = CARTESIAN_POINT ( 'NONE',  ( -6.017094017094014369, 3.673940397442059178E-15, -30.00000000000000000 ) ) ;
#302 =( GEOMETRIC_REPRESENTATION_CONTEXT ( 3 ) GLOBAL_UNCERTAINTY_ASSIGNED_CONTEXT ( ( #206 ) ) GLOBAL_UNIT_ASSIGNED_CONTEXT ( ( #219, #47, #45 ) ) REPRESENTATION_CONTEXT ( 'NONE', 'WORKASPACE' ) );
#303 = EDGE_CURVE ( 'NONE', #310, #258, #94, .T. ) ;
#304 = COLOUR_RGB ( '',0.7921568627450980005, 0.8196078431372548767, 0.9333333333333333481 ) ;
#305 = CARTESIAN_POINT ( 'NONE',  ( -46.22222222222222143, 0.0000000000000000000, 30.00000000000000000 ) ) ;
#306 = EDGE_LOOP ( 'NONE', ( #283, #62 ) ) ;
#307 = ORIENTED_EDGE ( 'NONE', *, *, #137, .T. ) ;
#308 = AXIS2_PLACEMENT_3D ( 'NONE', #249, #100, #254 ) ;
#309 = APPLICATION_PROTOCOL_DEFINITION ( 'draft international standard', 'automotive_design', 1998, #71 ) ;
#310 = VERTEX_POINT ( 'NONE', #246 ) ;
#311 = ORIENTED_EDGE ( 'NONE', *, *, #73, .F. ) ;
#312 = ORIENTED_EDGE ( 'NONE', *, *, #265, .T. ) ;
#313 = CONICAL_SURFACE ( 'NONE', #308, 14.00000000000000000, 0.7853981633974396193 ) ;
#314 = CARTESIAN_POINT ( 'NONE',  ( 49.98290598290599007, 3.673940397442059178E-15, -30.00000000000000000 ) ) ;
ENDSEC;
END-ISO-10303-21;
