ISO-10303-21;
HEADER;
FILE_DESCRIPTION (( 'STEP AP214' ),
    '1' );
FILE_NAME ('BRM 40x7.step',
    '2020-09-08T10:23:55',
    ( '' ),
    ( '' ),
    'SwSTEP 2.0',
    'SolidWorks 2020',
    '' );
FILE_SCHEMA (( 'AUTOMOTIVE_DESIGN' ));
ENDSEC;

DATA;
#1 = CARTESIAN_POINT ( 'NONE',  ( 73.48290598290599007, 2.449293598294706513E-15, -20.00000000000000000 ) ) ;
#2 = CYLINDRICAL_SURFACE ( 'NONE', #256, 20.00000000000000000 ) ;
#3 = CIRCLE ( 'NONE', #34, 20.00000000000000000 ) ;
#4 = APPLICATION_PROTOCOL_DEFINITION ( 'draft international standard', 'automotive_design', 1998, #9 ) ;
#5 =( NAMED_UNIT ( * ) SI_UNIT ( $, .STERADIAN. ) SOLID_ANGLE_UNIT ( ) );
#6 = DIRECTION ( 'NONE',  ( -1.000000000000000000, -0.0000000000000000000, -0.0000000000000000000 ) ) ;
#7 = CONICAL_SURFACE ( 'NONE', #133, 20.00000000000000000, 0.7853981633974447263 ) ;
#8 = DIRECTION ( 'NONE',  ( -1.000000000000000000, 0.0000000000000000000, 0.0000000000000000000 ) ) ;
#9 = APPLICATION_CONTEXT ( 'automotive_design' ) ;
#10 = FACE_OUTER_BOUND ( 'NONE', #212, .T. ) ;
#11 = CIRCLE ( 'NONE', #220, 20.00000000000000000 ) ;
#12 = CARTESIAN_POINT ( 'NONE',  ( 73.98290598290599007, 0.0000000000000000000, 0.0000000000000000000 ) ) ;
#13 = LINE ( 'NONE', #305, #234 ) ;
#14 = VECTOR ( 'NONE', #272, 1000.000000000000000 ) ;
#15 = AXIS2_PLACEMENT_3D ( 'NONE', #282, #238, #129 ) ;
#16 = ORIENTED_EDGE ( 'NONE', *, *, #295, .T. ) ;
#17 = CARTESIAN_POINT ( 'NONE',  ( -5.517094017093993052, 0.0000000000000000000, 0.0000000000000000000 ) ) ;
#18 = ORIENTED_EDGE ( 'NONE', *, *, #195, .F. ) ;
#19 = CARTESIAN_POINT ( 'NONE',  ( -6.017094017094014369, 4.898587196589413026E-15, -40.00000000000000000 ) ) ;
#20 = EDGE_CURVE ( 'NONE', #109, #262, #61, .T. ) ;
#21 = ORIENTED_EDGE ( 'NONE', *, *, #32, .T. ) ;
#22 = VECTOR ( 'NONE', #57, 1000.000000000000000 ) ;
#23 = CARTESIAN_POINT ( 'NONE',  ( 73.98290598290599007, 0.0000000000000000000, 0.0000000000000000000 ) ) ;
#24 = DIRECTION ( 'NONE',  ( 1.000000000000000000, -0.0000000000000000000, -0.0000000000000000000 ) ) ;
#25 = CARTESIAN_POINT ( 'NONE',  ( -6.017094017094014369, 20.00000000000000000, 0.0000000000000000000 ) ) ;
#26 =( NAMED_UNIT ( * ) SI_UNIT ( $, .STERADIAN. ) SOLID_ANGLE_UNIT ( ) );
#27 = ADVANCED_FACE ( 'NONE', ( #254 ), #226, .T. ) ;
#28 = DIRECTION ( 'NONE',  ( -1.000000000000000000, 0.0000000000000000000, 0.0000000000000000000 ) ) ;
#29 = PRODUCT_CONTEXT ( 'NONE', #85, 'mechanical' ) ;
#30 = AXIS2_PLACEMENT_3D ( 'NONE', #101, #193, #267 ) ;
#31 = DIRECTION ( 'NONE',  ( 0.0000000000000000000, 0.0000000000000000000, 1.000000000000000000 ) ) ;
#32 = EDGE_CURVE ( 'NONE', #174, #90, #13, .T. ) ;
#33 = DIRECTION ( 'NONE',  ( 1.000000000000000000, -0.0000000000000000000, -0.0000000000000000000 ) ) ;
#34 = AXIS2_PLACEMENT_3D ( 'NONE', #106, #33, #36 ) ;
#35 = ORIENTED_EDGE ( 'NONE', *, *, #236, .T. ) ;
#36 = DIRECTION ( 'NONE',  ( 0.0000000000000000000, 0.0000000000000000000, 1.000000000000000000 ) ) ;
#37 = LINE ( 'NONE', #127, #14 ) ;
#38 = CIRCLE ( 'NONE', #199, 40.00000000000000000 ) ;
#39 = DIRECTION ( 'NONE',  ( -0.0000000000000000000, 0.0000000000000000000, 1.000000000000000000 ) ) ;
#40 = DIRECTION ( 'NONE',  ( -1.000000000000000000, -0.0000000000000000000, -0.0000000000000000000 ) ) ;
#41 = ORIENTED_EDGE ( 'NONE', *, *, #64, .F. ) ;
#42 = ORIENTED_EDGE ( 'NONE', *, *, #216, .T. ) ;
#43 = CARTESIAN_POINT ( 'NONE',  ( 73.98290598290599007, 40.00000000000000000, 0.0000000000000000000 ) ) ;
#44 = ORIENTED_EDGE ( 'NONE', *, *, #64, .T. ) ;
#45 = CARTESIAN_POINT ( 'NONE',  ( -6.017094017094014369, 0.0000000000000000000, 0.0000000000000000000 ) ) ;
#46 = EDGE_LOOP ( 'NONE', ( #63, #229, #35, #289 ) ) ;
#47 = UNCERTAINTY_MEASURE_WITH_UNIT (LENGTH_MEASURE( 1.000000000000000082E-05 ), #98, 'distance_accuracy_value', 'NONE');
#48 = AXIS2_PLACEMENT_3D ( 'NONE', #116, #99, #239 ) ;
#49 = CARTESIAN_POINT ( 'NONE',  ( 73.98290598290599007, 2.510525938252072904E-15, 20.49999999999998934 ) ) ;
#50 = CARTESIAN_POINT ( 'NONE',  ( -6.017094017094014369, 2.510525938252076059E-15, -20.50000000000001776 ) ) ;
#51 = SURFACE_STYLE_USAGE ( .BOTH. , #171 ) ;
#52 = SHAPE_DEFINITION_REPRESENTATION ( #83, #180 ) ;
#53 = DIRECTION ( 'NONE',  ( -1.000000000000000000, -0.0000000000000000000, -0.0000000000000000000 ) ) ;
#54 = ORIENTED_EDGE ( 'NONE', *, *, #58, .F. ) ;
#55 = VECTOR ( 'NONE', #135, 1000.000000000000000 ) ;
#56 =( GEOMETRIC_REPRESENTATION_CONTEXT ( 3 ) GLOBAL_UNCERTAINTY_ASSIGNED_CONTEXT ( ( #142 ) ) GLOBAL_UNIT_ASSIGNED_CONTEXT ( ( #268, #240, #5 ) ) REPRESENTATION_CONTEXT ( 'NONE', 'WORKASPACE' ) );
#57 = DIRECTION ( 'NONE',  ( -1.000000000000000000, -0.0000000000000000000, -0.0000000000000000000 ) ) ;
#58 = EDGE_CURVE ( 'NONE', #136, #210, #242, .T. ) ;
#59 = ORIENTED_EDGE ( 'NONE', *, *, #20, .T. ) ;
#60 = DIRECTION ( 'NONE',  ( 0.0000000000000000000, 0.0000000000000000000, -1.000000000000000000 ) ) ;
#61 = CIRCLE ( 'NONE', #271, 20.49999999999998934 ) ;
#62 = DIRECTION ( 'NONE',  ( 0.0000000000000000000, 0.0000000000000000000, 1.000000000000000000 ) ) ;
#63 = ORIENTED_EDGE ( 'NONE', *, *, #155, .T. ) ;
#64 = EDGE_CURVE ( 'NONE', #262, #109, #167, .T. ) ;
#65 = ORIENTED_EDGE ( 'NONE', *, *, #20, .F. ) ;
#66 = SURFACE_STYLE_USAGE ( .BOTH. , #74 ) ;
#67 = AXIS2_PLACEMENT_3D ( 'NONE', #165, #28, #287 ) ;
#68 = COLOUR_RGB ( '',0.7921568627450980005, 0.8196078431372548767, 0.9333333333333333481 ) ;
#69 = ORIENTED_EDGE ( 'NONE', *, *, #105, .T. ) ;
#70 = CARTESIAN_POINT ( 'NONE',  ( 73.98290598290599007, 2.510525938252072904E-15, 20.49999999999998934 ) ) ;
#71 = EDGE_LOOP ( 'NONE', ( #147, #230, #283, #65 ) ) ;
#72 = CARTESIAN_POINT ( 'NONE',  ( -46.22222222222222143, 0.0000000000000000000, 0.0000000000000000000 ) ) ;
#73 = FACE_BOUND ( 'NONE', #277, .T. ) ;
#74 = SURFACE_SIDE_STYLE ('',( #137 ) ) ;
#75 = ADVANCED_FACE ( 'NONE', ( #73, #217 ), #314, .F. ) ;
#76 = CARTESIAN_POINT ( 'NONE',  ( -6.017094017094014369, 0.0000000000000000000, 20.50000000000001776 ) ) ;
#77 = SURFACE_STYLE_FILL_AREA ( #197 ) ;
#78 = ADVANCED_FACE ( 'NONE', ( #120 ), #2, .F. ) ;
#79 = STYLED_ITEM ( 'NONE', ( #307 ), #225 ) ;
#80 = CARTESIAN_POINT ( 'NONE',  ( 73.98290598290599007, 0.0000000000000000000, 0.0000000000000000000 ) ) ;
#81 = EDGE_LOOP ( 'NONE', ( #18, #312, #186, #221 ) ) ;
#82 = CARTESIAN_POINT ( 'NONE',  ( 73.48290598290599007, 0.0000000000000000000, 20.00000000000000000 ) ) ;
#83 = PRODUCT_DEFINITION_SHAPE ( 'NONE', 'NONE',  #248 ) ;
#84 = CIRCLE ( 'NONE', #257, 40.00000000000000000 ) ;
#85 = APPLICATION_CONTEXT ( 'automotive_design' ) ;
#86 = LINE ( 'NONE', #70, #55 ) ;
#87 = ORIENTED_EDGE ( 'NONE', *, *, #105, .F. ) ;
#88 = VECTOR ( 'NONE', #6, 1000.000000000000000 ) ;
#89 = EDGE_LOOP ( 'NONE', ( #132, #207, #276, #108 ) ) ;
#90 = VERTEX_POINT ( 'NONE', #76 ) ;
#91 =( LENGTH_UNIT ( ) NAMED_UNIT ( * ) SI_UNIT ( .MILLI., .METRE. ) );
#92 = ORIENTED_EDGE ( 'NONE', *, *, #209, .F. ) ;
#93 = DIRECTION ( 'NONE',  ( 0.0000000000000000000, 0.0000000000000000000, 1.000000000000000000 ) ) ;
#94 = VERTEX_POINT ( 'NONE', #1 ) ;
#95 = DIRECTION ( 'NONE',  ( 1.000000000000000000, 0.0000000000000000000, 0.0000000000000000000 ) ) ;
#96 = EDGE_CURVE ( 'NONE', #114, #181, #265, .T. ) ;
#97 = DIRECTION ( 'NONE',  ( 0.0000000000000000000, 0.0000000000000000000, -1.000000000000000000 ) ) ;
#98 =( LENGTH_UNIT ( ) NAMED_UNIT ( * ) SI_UNIT ( .MILLI., .METRE. ) );
#99 = DIRECTION ( 'NONE',  ( -1.000000000000000000, -0.0000000000000000000, -0.0000000000000000000 ) ) ;
#100 = AXIS2_PLACEMENT_3D ( 'NONE', #122, #8, #104 ) ;
#101 = CARTESIAN_POINT ( 'NONE',  ( -6.017094017094014369, 0.0000000000000000000, 0.0000000000000000000 ) ) ;
#102 = FILL_AREA_STYLE_COLOUR ( '', #68 ) ;
#103 = AXIS2_PLACEMENT_3D ( 'NONE', #45, #95, #113 ) ;
#104 = DIRECTION ( 'NONE',  ( 0.0000000000000000000, 0.0000000000000000000, 1.000000000000000000 ) ) ;
#105 = EDGE_CURVE ( 'NONE', #174, #154, #115, .T. ) ;
#106 = CARTESIAN_POINT ( 'NONE',  ( 73.48290598290599007, 0.0000000000000000000, 0.0000000000000000000 ) ) ;
#107 = ADVANCED_FACE ( 'NONE', ( #285 ), #7, .F. ) ;
#108 = ORIENTED_EDGE ( 'NONE', *, *, #32, .F. ) ;
#109 = VERTEX_POINT ( 'NONE', #49 ) ;
#110 = VECTOR ( 'NONE', #250, 1000.000000000000114 ) ;
#111 = CARTESIAN_POINT ( 'NONE',  ( -46.22222222222222143, 0.0000000000000000000, 0.0000000000000000000 ) ) ;
#112 = ORIENTED_EDGE ( 'NONE', *, *, #195, .T. ) ;
#113 = DIRECTION ( 'NONE',  ( 0.0000000000000000000, 0.0000000000000000000, -1.000000000000000000 ) ) ;
#114 = VERTEX_POINT ( 'NONE', #237 ) ;
#115 = CIRCLE ( 'NONE', #67, 20.00000000000000000 ) ;
#116 = CARTESIAN_POINT ( 'NONE',  ( 73.98290598290599007, 0.0000000000000000000, 0.0000000000000000000 ) ) ;
#117 = LINE ( 'NONE', #164, #183 ) ;
#118 = DIRECTION ( 'NONE',  ( 0.0000000000000000000, 0.0000000000000000000, 1.000000000000000000 ) ) ;
#119 = DIRECTION ( 'NONE',  ( -1.000000000000000000, 0.0000000000000000000, 0.0000000000000000000 ) ) ;
#120 = FACE_OUTER_BOUND ( 'NONE', #241, .T. ) ;
#121 = CARTESIAN_POINT ( 'NONE',  ( -46.22222222222222143, 0.0000000000000000000, 20.00000000000000000 ) ) ;
#122 = CARTESIAN_POINT ( 'NONE',  ( -5.517094017093993052, 0.0000000000000000000, 0.0000000000000000000 ) ) ;
#123 = EDGE_CURVE ( 'NONE', #94, #154, #126, .T. ) ;
#124 = APPLICATION_PROTOCOL_DEFINITION ( 'draft international standard', 'automotive_design', 1998, #85 ) ;
#125 = DIRECTION ( 'NONE',  ( 1.000000000000000000, -0.0000000000000000000, -0.0000000000000000000 ) ) ;
#126 = LINE ( 'NONE', #176, #22 ) ;
#127 = CARTESIAN_POINT ( 'NONE',  ( -46.22222222222222143, 4.898587196589413026E-15, -40.00000000000000000 ) ) ;
#128 = AXIS2_PLACEMENT_3D ( 'NONE', #25, #215, #97 ) ;
#129 = DIRECTION ( 'NONE',  ( 0.0000000000000000000, 0.0000000000000000000, -1.000000000000000000 ) ) ;
#130 = DIRECTION ( 'NONE',  ( 0.0000000000000000000, 0.0000000000000000000, 1.000000000000000000 ) ) ;
#131 = EDGE_CURVE ( 'NONE', #161, #174, #204, .T. ) ;
#132 = ORIENTED_EDGE ( 'NONE', *, *, #236, .F. ) ;
#133 = AXIS2_PLACEMENT_3D ( 'NONE', #169, #290, #264 ) ;
#134 = ORIENTED_EDGE ( 'NONE', *, *, #131, .T. ) ;
#135 = DIRECTION ( 'NONE',  ( 0.7071067811865549002, 8.659560562354844111E-17, 0.7071067811865401342 ) ) ;
#136 = VERTEX_POINT ( 'NONE', #144 ) ;
#137 = SURFACE_STYLE_FILL_AREA ( #253 ) ;
#138 = ORIENTED_EDGE ( 'NONE', *, *, #58, .T. ) ;
#139 = FACE_BOUND ( 'NONE', #278, .T. ) ;
#140 = CIRCLE ( 'NONE', #158, 20.50000000000001776 ) ;
#141 = DIRECTION ( 'NONE',  ( 0.0000000000000000000, 0.0000000000000000000, 1.000000000000000000 ) ) ;
#142 = UNCERTAINTY_MEASURE_WITH_UNIT (LENGTH_MEASURE( 1.000000000000000082E-05 ), #268, 'distance_accuracy_value', 'NONE');
#143 = DIRECTION ( 'NONE',  ( -1.000000000000000000, -0.0000000000000000000, -0.0000000000000000000 ) ) ;
#144 = CARTESIAN_POINT ( 'NONE',  ( -6.017094017094014369, 0.0000000000000000000, 40.00000000000000000 ) ) ;
#145 = CARTESIAN_POINT ( 'NONE',  ( 73.98290598290599007, 4.898587196589413026E-15, -40.00000000000000000 ) ) ;
#146 = AXIS2_PLACEMENT_3D ( 'NONE', #111, #40, #130 ) ;
#147 = ORIENTED_EDGE ( 'NONE', *, *, #216, .F. ) ;
#148 = FACE_OUTER_BOUND ( 'NONE', #157, .T. ) ;
#149 = ORIENTED_EDGE ( 'NONE', *, *, #155, .F. ) ;
#150 = DIRECTION ( 'NONE',  ( 0.0000000000000000000, 0.0000000000000000000, 1.000000000000000000 ) ) ;
#151 = CYLINDRICAL_SURFACE ( 'NONE', #294, 20.00000000000000000 ) ;
#152 = AXIS2_PLACEMENT_3D ( 'NONE', #166, #24, #93 ) ;
#153 = CONICAL_SURFACE ( 'NONE', #15, 20.49999999999998934, 0.7853981633974378429 ) ;
#154 = VERTEX_POINT ( 'NONE', #302 ) ;
#155 = EDGE_CURVE ( 'NONE', #161, #94, #3, .T. ) ;
#156 = EDGE_LOOP ( 'NONE', ( #194, #190 ) ) ;
#157 = EDGE_LOOP ( 'NONE', ( #206, #87, #21, #92 ) ) ;
#158 = AXIS2_PLACEMENT_3D ( 'NONE', #214, #286, #263 ) ;
#159 = PRODUCT_DEFINITION_FORMATION_WITH_SPECIFIED_SOURCE ( 'ANY', '', #270, .NOT_KNOWN. ) ;
#160 = ADVANCED_FACE ( 'NONE', ( #10 ), #177, .F. ) ;
#161 = VERTEX_POINT ( 'NONE', #82 ) ;
#162 = DIRECTION ( 'NONE',  ( -1.000000000000000000, -0.0000000000000000000, -0.0000000000000000000 ) ) ;
#163 = DIRECTION ( 'NONE',  ( -1.000000000000000000, -0.0000000000000000000, -0.0000000000000000000 ) ) ;
#164 = CARTESIAN_POINT ( 'NONE',  ( 73.98290598290599007, 0.0000000000000000000, -20.49999999999998934 ) ) ;
#165 = CARTESIAN_POINT ( 'NONE',  ( -5.517094017093993052, 0.0000000000000000000, 0.0000000000000000000 ) ) ;
#166 = CARTESIAN_POINT ( 'NONE',  ( 73.48290598290599007, 0.0000000000000000000, 0.0000000000000000000 ) ) ;
#167 = CIRCLE ( 'NONE', #298, 20.49999999999998934 ) ;
#168 = PRESENTATION_LAYER_ASSIGNMENT (  '', '', ( #178 ) ) ;
#169 = CARTESIAN_POINT ( 'NONE',  ( -5.517094017093993052, 0.0000000000000000000, 0.0000000000000000000 ) ) ;
#170 = PRESENTATION_STYLE_ASSIGNMENT (( #51 ) ) ;
#171 = SURFACE_SIDE_STYLE ('',( #77 ) ) ;
#172 = AXIS2_PLACEMENT_3D ( 'NONE', #80, #125, #60 ) ;
#173 = EDGE_CURVE ( 'NONE', #114, #136, #222, .T. ) ;
#174 = VERTEX_POINT ( 'NONE', #274 ) ;
#175 = ADVANCED_FACE ( 'NONE', ( #148 ), #246, .F. ) ;
#176 = CARTESIAN_POINT ( 'NONE',  ( -46.22222222222222143, 2.449293598294706513E-15, -20.00000000000000000 ) ) ;
#177 = CONICAL_SURFACE ( 'NONE', #172, 20.49999999999998934, 0.7853981633974378429 ) ;
#178 = STYLED_ITEM ( 'NONE', ( #170 ), #180 ) ;
#179 = DIRECTION ( 'NONE',  ( 0.0000000000000000000, 0.0000000000000000000, 1.000000000000000000 ) ) ;
#180 = ADVANCED_BREP_SHAPE_REPRESENTATION ( 'BRM 40x7', ( #225, #243 ), #249 ) ;
#181 = VERTEX_POINT ( 'NONE', #145 ) ;
#182 = EDGE_CURVE ( 'NONE', #154, #308, #200, .T. ) ;
#183 = VECTOR ( 'NONE', #266, 1000.000000000000000 ) ;
#184 = DIRECTION ( 'NONE',  ( -0.7071067811865500152, 0.0000000000000000000, 0.7071067811865451302 ) ) ;
#185 = PRODUCT_DEFINITION_CONTEXT ( 'detailed design', #9, 'design' ) ;
#186 = ORIENTED_EDGE ( 'NONE', *, *, #173, .T. ) ;
#187 = ADVANCED_FACE ( 'NONE', ( #247 ), #202, .T. ) ;
#188 = COLOUR_RGB ( '',0.7921568627450980005, 0.8196078431372548767, 0.9333333333333333481 ) ;
#189 = FILL_AREA_STYLE_COLOUR ( '', #188 ) ;
#190 = ORIENTED_EDGE ( 'NONE', *, *, #198, .F. ) ;
#191 = DIRECTION ( 'NONE',  ( -1.000000000000000000, 0.0000000000000000000, -0.0000000000000000000 ) ) ;
#192 = CARTESIAN_POINT ( 'NONE',  ( -46.22222222222222143, 0.0000000000000000000, 0.0000000000000000000 ) ) ;
#193 = DIRECTION ( 'NONE',  ( -1.000000000000000000, -0.0000000000000000000, -0.0000000000000000000 ) ) ;
#194 = ORIENTED_EDGE ( 'NONE', *, *, #96, .F. ) ;
#195 = EDGE_CURVE ( 'NONE', #181, #210, #37, .T. ) ;
#196 = CIRCLE ( 'NONE', #103, 20.50000000000001776 ) ;
#197 = FILL_AREA_STYLE ('',( #102 ) ) ;
#198 = EDGE_CURVE ( 'NONE', #181, #114, #38, .T. ) ;
#199 = AXIS2_PLACEMENT_3D ( 'NONE', #12, #53, #208 ) ;
#200 = LINE ( 'NONE', #201, #110 ) ;
#201 = CARTESIAN_POINT ( 'NONE',  ( -5.517094017093993052, 2.449293598294706513E-15, -20.00000000000000000 ) ) ;
#202 = CYLINDRICAL_SURFACE ( 'NONE', #288, 40.00000000000000000 ) ;
#203 = AXIS2_PLACEMENT_3D ( 'NONE', #43, #191, #39 ) ;
#204 = LINE ( 'NONE', #121, #311 ) ;
#205 = ORIENTED_EDGE ( 'NONE', *, *, #96, .T. ) ;
#206 = ORIENTED_EDGE ( 'NONE', *, *, #182, .F. ) ;
#207 = ORIENTED_EDGE ( 'NONE', *, *, #182, .T. ) ;
#208 = DIRECTION ( 'NONE',  ( 0.0000000000000000000, 0.0000000000000000000, 1.000000000000000000 ) ) ;
#209 = EDGE_CURVE ( 'NONE', #308, #90, #196, .T. ) ;
#210 = VERTEX_POINT ( 'NONE', #19 ) ;
#211 =( NAMED_UNIT ( * ) PLANE_ANGLE_UNIT ( ) SI_UNIT ( $, .RADIAN. ) );
#212 = EDGE_LOOP ( 'NONE', ( #149, #42, #41, #281 ) ) ;
#213 =( GEOMETRIC_REPRESENTATION_CONTEXT ( 3 ) GLOBAL_UNCERTAINTY_ASSIGNED_CONTEXT ( ( #47 ) ) GLOBAL_UNIT_ASSIGNED_CONTEXT ( ( #98, #211, #26 ) ) REPRESENTATION_CONTEXT ( 'NONE', 'WORKASPACE' ) );
#214 = CARTESIAN_POINT ( 'NONE',  ( -6.017094017094014369, 0.0000000000000000000, 0.0000000000000000000 ) ) ;
#215 = DIRECTION ( 'NONE',  ( 1.000000000000000000, 0.0000000000000000000, 0.0000000000000000000 ) ) ;
#216 = EDGE_CURVE ( 'NONE', #161, #109, #86, .T. ) ;
#217 = FACE_OUTER_BOUND ( 'NONE', #255, .T. ) ;
#218 = CARTESIAN_POINT ( 'NONE',  ( -6.017094017094014369, 0.0000000000000000000, 0.0000000000000000000 ) ) ;
#219 = DIRECTION ( 'NONE',  ( -1.000000000000000000, -0.0000000000000000000, -0.0000000000000000000 ) ) ;
#220 = AXIS2_PLACEMENT_3D ( 'NONE', #17, #119, #309 ) ;
#221 = ORIENTED_EDGE ( 'NONE', *, *, #269, .F. ) ;
#222 = LINE ( 'NONE', #244, #88 ) ;
#223 = PRODUCT_RELATED_PRODUCT_CATEGORY ( 'part', '', ( #270 ) ) ;
#224 = CIRCLE ( 'NONE', #152, 20.00000000000000000 ) ;
#225 = MANIFOLD_SOLID_BREP ( 'Chamfer1', #304 ) ;
#226 = CYLINDRICAL_SURFACE ( 'NONE', #146, 40.00000000000000000 ) ;
#227 = EDGE_CURVE ( 'NONE', #90, #308, #140, .T. ) ;
#228 = MECHANICAL_DESIGN_GEOMETRIC_PRESENTATION_REPRESENTATION (  '', ( #79 ), #213 ) ;
#229 = ORIENTED_EDGE ( 'NONE', *, *, #123, .T. ) ;
#230 = ORIENTED_EDGE ( 'NONE', *, *, #295, .F. ) ;
#231 = CARTESIAN_POINT ( 'NONE',  ( 73.98290598290599007, 0.0000000000000000000, -20.49999999999998934 ) ) ;
#232 = ORIENTED_EDGE ( 'NONE', *, *, #173, .F. ) ;
#233 = ORIENTED_EDGE ( 'NONE', *, *, #209, .T. ) ;
#234 = VECTOR ( 'NONE', #184, 1000.000000000000114 ) ;
#235 = DIRECTION ( 'NONE',  ( -1.000000000000000000, -0.0000000000000000000, -0.0000000000000000000 ) ) ;
#236 = EDGE_CURVE ( 'NONE', #154, #174, #11, .T. ) ;
#237 = CARTESIAN_POINT ( 'NONE',  ( 73.98290598290599007, 0.0000000000000000000, 40.00000000000000000 ) ) ;
#238 = DIRECTION ( 'NONE',  ( 1.000000000000000000, -0.0000000000000000000, -0.0000000000000000000 ) ) ;
#239 = DIRECTION ( 'NONE',  ( 0.0000000000000000000, 0.0000000000000000000, 1.000000000000000000 ) ) ;
#240 =( NAMED_UNIT ( * ) PLANE_ANGLE_UNIT ( ) SI_UNIT ( $, .RADIAN. ) );
#241 = EDGE_LOOP ( 'NONE', ( #260, #16, #134, #69 ) ) ;
#242 = CIRCLE ( 'NONE', #30, 40.00000000000000000 ) ;
#243 = AXIS2_PLACEMENT_3D ( 'NONE', #291, #31, #245 ) ;
#244 = CARTESIAN_POINT ( 'NONE',  ( -46.22222222222222143, 0.0000000000000000000, 40.00000000000000000 ) ) ;
#245 = DIRECTION ( 'NONE',  ( 1.000000000000000000, 0.0000000000000000000, 0.0000000000000000000 ) ) ;
#246 = CONICAL_SURFACE ( 'NONE', #100, 20.00000000000000000, 0.7853981633974447263 ) ;
#247 = FACE_OUTER_BOUND ( 'NONE', #81, .T. ) ;
#248 = PRODUCT_DEFINITION ( 'UNKNOWN', '', #159, #185 ) ;
#249 =( GEOMETRIC_REPRESENTATION_CONTEXT ( 3 ) GLOBAL_UNCERTAINTY_ASSIGNED_CONTEXT ( ( #280 ) ) GLOBAL_UNIT_ASSIGNED_CONTEXT ( ( #91, #292, #293 ) ) REPRESENTATION_CONTEXT ( 'NONE', 'WORKASPACE' ) );
#250 = DIRECTION ( 'NONE',  ( -0.7071067811865500152, 8.659560562354904508E-17, -0.7071067811865451302 ) ) ;
#251 = ORIENTED_EDGE ( 'NONE', *, *, #227, .T. ) ;
#252 = ADVANCED_FACE ( 'NONE', ( #139, #284 ), #313, .F. ) ;
#253 = FILL_AREA_STYLE ('',( #189 ) ) ;
#254 = FACE_OUTER_BOUND ( 'NONE', #258, .T. ) ;
#255 = EDGE_LOOP ( 'NONE', ( #138, #303 ) ) ;
#256 = AXIS2_PLACEMENT_3D ( 'NONE', #192, #143, #118 ) ;
#257 = AXIS2_PLACEMENT_3D ( 'NONE', #218, #162, #179 ) ;
#258 = EDGE_LOOP ( 'NONE', ( #205, #112, #54, #232 ) ) ;
#259 = DIRECTION ( 'NONE',  ( 0.0000000000000000000, 0.0000000000000000000, 1.000000000000000000 ) ) ;
#260 = ORIENTED_EDGE ( 'NONE', *, *, #123, .F. ) ;
#261 = FACE_OUTER_BOUND ( 'NONE', #46, .T. ) ;
#262 = VERTEX_POINT ( 'NONE', #231 ) ;
#263 = DIRECTION ( 'NONE',  ( 0.0000000000000000000, 0.0000000000000000000, -1.000000000000000000 ) ) ;
#264 = DIRECTION ( 'NONE',  ( 0.0000000000000000000, 0.0000000000000000000, 1.000000000000000000 ) ) ;
#265 = CIRCLE ( 'NONE', #48, 40.00000000000000000 ) ;
#266 = DIRECTION ( 'NONE',  ( 0.7071067811865549002, 0.0000000000000000000, -0.7071067811865401342 ) ) ;
#267 = DIRECTION ( 'NONE',  ( 0.0000000000000000000, 0.0000000000000000000, 1.000000000000000000 ) ) ;
#268 =( LENGTH_UNIT ( ) NAMED_UNIT ( * ) SI_UNIT ( .MILLI., .METRE. ) );
#269 = EDGE_CURVE ( 'NONE', #210, #136, #84, .T. ) ;
#270 = PRODUCT ( 'BRM 40x7', 'BRM 40x7', '', ( #29 ) ) ;
#271 = AXIS2_PLACEMENT_3D ( 'NONE', #306, #163, #62 ) ;
#272 = DIRECTION ( 'NONE',  ( -1.000000000000000000, -0.0000000000000000000, -0.0000000000000000000 ) ) ;
#273 = ADVANCED_FACE ( 'NONE', ( #261 ), #151, .F. ) ;
#274 = CARTESIAN_POINT ( 'NONE',  ( -5.517094017093993052, 0.0000000000000000000, 20.00000000000000000 ) ) ;
#275 = PRESENTATION_LAYER_ASSIGNMENT (  '', '', ( #79 ) ) ;
#276 = ORIENTED_EDGE ( 'NONE', *, *, #227, .F. ) ;
#277 = EDGE_LOOP ( 'NONE', ( #251, #233 ) ) ;
#278 = EDGE_LOOP ( 'NONE', ( #44, #59 ) ) ;
#279 = FACE_OUTER_BOUND ( 'NONE', #71, .T. ) ;
#280 = UNCERTAINTY_MEASURE_WITH_UNIT (LENGTH_MEASURE( 1.000000000000000082E-05 ), #91, 'distance_accuracy_value', 'NONE');
#281 = ORIENTED_EDGE ( 'NONE', *, *, #299, .F. ) ;
#282 = CARTESIAN_POINT ( 'NONE',  ( 73.98290598290599007, 0.0000000000000000000, 0.0000000000000000000 ) ) ;
#283 = ORIENTED_EDGE ( 'NONE', *, *, #299, .T. ) ;
#284 = FACE_OUTER_BOUND ( 'NONE', #156, .T. ) ;
#285 = FACE_OUTER_BOUND ( 'NONE', #89, .T. ) ;
#286 = DIRECTION ( 'NONE',  ( 1.000000000000000000, 0.0000000000000000000, 0.0000000000000000000 ) ) ;
#287 = DIRECTION ( 'NONE',  ( 0.0000000000000000000, 0.0000000000000000000, -1.000000000000000000 ) ) ;
#288 = AXIS2_PLACEMENT_3D ( 'NONE', #301, #296, #150 ) ;
#289 = ORIENTED_EDGE ( 'NONE', *, *, #131, .F. ) ;
#290 = DIRECTION ( 'NONE',  ( -1.000000000000000000, 0.0000000000000000000, 0.0000000000000000000 ) ) ;
#291 = CARTESIAN_POINT ( 'NONE',  ( 0.0000000000000000000, 0.0000000000000000000, 0.0000000000000000000 ) ) ;
#292 =( NAMED_UNIT ( * ) PLANE_ANGLE_UNIT ( ) SI_UNIT ( $, .RADIAN. ) );
#293 =( NAMED_UNIT ( * ) SI_UNIT ( $, .STERADIAN. ) SOLID_ANGLE_UNIT ( ) );
#294 = AXIS2_PLACEMENT_3D ( 'NONE', #72, #235, #259 ) ;
#295 = EDGE_CURVE ( 'NONE', #94, #161, #224, .T. ) ;
#296 = DIRECTION ( 'NONE',  ( -1.000000000000000000, -0.0000000000000000000, -0.0000000000000000000 ) ) ;
#297 = DIRECTION ( 'NONE',  ( -1.000000000000000000, -0.0000000000000000000, -0.0000000000000000000 ) ) ;
#298 = AXIS2_PLACEMENT_3D ( 'NONE', #23, #219, #141 ) ;
#299 = EDGE_CURVE ( 'NONE', #94, #262, #117, .T. ) ;
#300 = MECHANICAL_DESIGN_GEOMETRIC_PRESENTATION_REPRESENTATION (  '', ( #178 ), #56 ) ;
#301 = CARTESIAN_POINT ( 'NONE',  ( -46.22222222222222143, 0.0000000000000000000, 0.0000000000000000000 ) ) ;
#302 = CARTESIAN_POINT ( 'NONE',  ( -5.517094017093993052, 2.449293598294706513E-15, -20.00000000000000000 ) ) ;
#303 = ORIENTED_EDGE ( 'NONE', *, *, #269, .T. ) ;
#304 = CLOSED_SHELL ( 'NONE', ( #160, #107, #273, #27, #75, #187, #252, #78, #175, #310 ) ) ;
#305 = CARTESIAN_POINT ( 'NONE',  ( -5.517094017093993052, 0.0000000000000000000, 20.00000000000000000 ) ) ;
#306 = CARTESIAN_POINT ( 'NONE',  ( 73.98290598290599007, 0.0000000000000000000, 0.0000000000000000000 ) ) ;
#307 = PRESENTATION_STYLE_ASSIGNMENT (( #66 ) ) ;
#308 = VERTEX_POINT ( 'NONE', #50 ) ;
#309 = DIRECTION ( 'NONE',  ( 0.0000000000000000000, 0.0000000000000000000, -1.000000000000000000 ) ) ;
#310 = ADVANCED_FACE ( 'NONE', ( #279 ), #153, .F. ) ;
#311 = VECTOR ( 'NONE', #297, 1000.000000000000000 ) ;
#312 = ORIENTED_EDGE ( 'NONE', *, *, #198, .T. ) ;
#313 = PLANE ( 'NONE',  #203 ) ;
#314 = PLANE ( 'NONE',  #128 ) ;
ENDSEC;
END-ISO-10303-21;
