ISO-10303-21;
HEADER;
FILE_DESCRIPTION (( 'STEP AP214' ),
    '1' );
FILE_NAME ('BRM 24x5.step',
    '2020-09-08T10:23:13',
    ( '' ),
    ( '' ),
    'SwSTEP 2.0',
    'SolidWorks 2020',
    '' );
FILE_SCHEMA (( 'AUTOMOTIVE_DESIGN' ));
ENDSEC;

DATA;
#1 = DIRECTION ( 'NONE',  ( -1.000000000000000000, -0.0000000000000000000, -0.0000000000000000000 ) ) ;
#2 = EDGE_CURVE ( 'NONE', #17, #284, #124, .T. ) ;
#3 = DIRECTION ( 'NONE',  ( -1.000000000000000000, 0.0000000000000000000, 0.0000000000000000000 ) ) ;
#4 = CARTESIAN_POINT ( 'NONE',  ( -5.517094017094013481, 0.0000000000000000000, 12.00000000000000000 ) ) ;
#5 = STYLED_ITEM ( 'NONE', ( #159 ), #16 ) ;
#6 = DIRECTION ( 'NONE',  ( 0.0000000000000000000, 0.0000000000000000000, -1.000000000000000000 ) ) ;
#7 = CARTESIAN_POINT ( 'NONE',  ( 41.98290598290599007, 0.0000000000000000000, -12.50000000000000178 ) ) ;
#8 = DIRECTION ( 'NONE',  ( 0.0000000000000000000, 0.0000000000000000000, -1.000000000000000000 ) ) ;
#9 = DIRECTION ( 'NONE',  ( -0.7071067811865401342, 8.659560562355022838E-17, -0.7071067811865549002 ) ) ;
#10 = ORIENTED_EDGE ( 'NONE', *, *, #161, .T. ) ;
#11 = CARTESIAN_POINT ( 'NONE',  ( -6.017094017094014369, 0.0000000000000000000, 0.0000000000000000000 ) ) ;
#12 = EDGE_CURVE ( 'NONE', #284, #17, #51, .T. ) ;
#13 = CARTESIAN_POINT ( 'NONE',  ( -46.22222222222222143, 3.061616997868383043E-15, -25.00000000000000000 ) ) ;
#14 = ORIENTED_EDGE ( 'NONE', *, *, #12, .T. ) ;
#15 = DIRECTION ( 'NONE',  ( 1.000000000000000000, 0.0000000000000000000, 0.0000000000000000000 ) ) ;
#16 = ADVANCED_BREP_SHAPE_REPRESENTATION ( 'BRM 24x5', ( #44, #242 ), #46 ) ;
#17 = VERTEX_POINT ( 'NONE', #171 ) ;
#18 = DIRECTION ( 'NONE',  ( 0.0000000000000000000, 0.0000000000000000000, 1.000000000000000000 ) ) ;
#19 = ORIENTED_EDGE ( 'NONE', *, *, #268, .T. ) ;
#20 = AXIS2_PLACEMENT_3D ( 'NONE', #56, #163, #18 ) ;
#21 = ORIENTED_EDGE ( 'NONE', *, *, #153, .T. ) ;
#22 = AXIS2_PLACEMENT_3D ( 'NONE', #53, #276, #207 ) ;
#23 = CARTESIAN_POINT ( 'NONE',  ( -5.517094017094013481, 0.0000000000000000000, 0.0000000000000000000 ) ) ;
#24 = CARTESIAN_POINT ( 'NONE',  ( 41.98290598290599007, 1.530808498934191719E-15, 12.50000000000000178 ) ) ;
#25 = AXIS2_PLACEMENT_3D ( 'NONE', #235, #180, #106 ) ;
#26 = CARTESIAN_POINT ( 'NONE',  ( 41.98290598290599007, 0.0000000000000000000, 25.00000000000000000 ) ) ;
#27 = FACE_OUTER_BOUND ( 'NONE', #119, .T. ) ;
#28 = LINE ( 'NONE', #7, #260 ) ;
#29 = VECTOR ( 'NONE', #176, 1000.000000000000000 ) ;
#30 = CARTESIAN_POINT ( 'NONE',  ( -6.017094017094014369, 0.0000000000000000000, 0.0000000000000000000 ) ) ;
#31 = DIRECTION ( 'NONE',  ( 1.000000000000000000, -0.0000000000000000000, -0.0000000000000000000 ) ) ;
#32 = ORIENTED_EDGE ( 'NONE', *, *, #275, .F. ) ;
#33 =( NAMED_UNIT ( * ) SI_UNIT ( $, .STERADIAN. ) SOLID_ANGLE_UNIT ( ) );
#34 = CARTESIAN_POINT ( 'NONE',  ( -46.22222222222222143, 1.469576158976823947E-15, -12.00000000000000000 ) ) ;
#35 = EDGE_LOOP ( 'NONE', ( #187, #280 ) ) ;
#36 = AXIS2_PLACEMENT_3D ( 'NONE', #254, #54, #272 ) ;
#37 = EDGE_LOOP ( 'NONE', ( #19, #168, #109, #111 ) ) ;
#38 = EDGE_LOOP ( 'NONE', ( #57, #221, #210, #233 ) ) ;
#39 = CARTESIAN_POINT ( 'NONE',  ( 0.0000000000000000000, 0.0000000000000000000, 0.0000000000000000000 ) ) ;
#40 = ADVANCED_FACE ( 'NONE', ( #172, #27 ), #94, .F. ) ;
#41 = ORIENTED_EDGE ( 'NONE', *, *, #257, .F. ) ;
#42 = AXIS2_PLACEMENT_3D ( 'NONE', #306, #228, #230 ) ;
#43 = ADVANCED_FACE ( 'NONE', ( #173 ), #50, .F. ) ;
#44 = MANIFOLD_SOLID_BREP ( 'Chamfer1', #165 ) ;
#45 = AXIS2_PLACEMENT_3D ( 'NONE', #314, #267, #261 ) ;
#46 =( GEOMETRIC_REPRESENTATION_CONTEXT ( 3 ) GLOBAL_UNCERTAINTY_ASSIGNED_CONTEXT ( ( #192 ) ) GLOBAL_UNIT_ASSIGNED_CONTEXT ( ( #112, #138, #156 ) ) REPRESENTATION_CONTEXT ( 'NONE', 'WORKASPACE' ) );
#47 = LINE ( 'NONE', #76, #95 ) ;
#48 = DIRECTION ( 'NONE',  ( 1.000000000000000000, -0.0000000000000000000, -0.0000000000000000000 ) ) ;
#49 = PRESENTATION_STYLE_ASSIGNMENT (( #149 ) ) ;
#50 = CYLINDRICAL_SURFACE ( 'NONE', #215, 12.00000000000000000 ) ;
#51 = CIRCLE ( 'NONE', #101, 12.00000000000000000 ) ;
#52 = FACE_OUTER_BOUND ( 'NONE', #37, .T. ) ;
#53 = CARTESIAN_POINT ( 'NONE',  ( 41.48290598290599007, 0.0000000000000000000, 0.0000000000000000000 ) ) ;
#54 = DIRECTION ( 'NONE',  ( -1.000000000000000000, -0.0000000000000000000, -0.0000000000000000000 ) ) ;
#55 = SURFACE_STYLE_FILL_AREA ( #278 ) ;
#56 = CARTESIAN_POINT ( 'NONE',  ( -6.017094017094014369, 0.0000000000000000000, 0.0000000000000000000 ) ) ;
#57 = ORIENTED_EDGE ( 'NONE', *, *, #189, .F. ) ;
#58 = FACE_OUTER_BOUND ( 'NONE', #303, .T. ) ;
#59 = EDGE_CURVE ( 'NONE', #60, #258, #47, .T. ) ;
#60 = VERTEX_POINT ( 'NONE', #26 ) ;
#61 = SURFACE_STYLE_USAGE ( .BOTH. , #86 ) ;
#62 = CYLINDRICAL_SURFACE ( 'NONE', #36, 12.00000000000000000 ) ;
#63 = VERTEX_POINT ( 'NONE', #129 ) ;
#64 = AXIS2_PLACEMENT_3D ( 'NONE', #72, #197, #297 ) ;
#65 = CIRCLE ( 'NONE', #69, 12.50000000000001066 ) ;
#66 = ORIENTED_EDGE ( 'NONE', *, *, #211, .F. ) ;
#67 = APPLICATION_PROTOCOL_DEFINITION ( 'draft international standard', 'automotive_design', 1998, #113 ) ;
#68 = DIRECTION ( 'NONE',  ( 0.0000000000000000000, 0.0000000000000000000, -1.000000000000000000 ) ) ;
#69 = AXIS2_PLACEMENT_3D ( 'NONE', #30, #133, #203 ) ;
#70 = ADVANCED_FACE ( 'NONE', ( #74 ), #77, .F. ) ;
#71 = FACE_OUTER_BOUND ( 'NONE', #208, .T. ) ;
#72 = CARTESIAN_POINT ( 'NONE',  ( -5.517094017094013481, 0.0000000000000000000, 0.0000000000000000000 ) ) ;
#73 = EDGE_CURVE ( 'NONE', #63, #137, #222, .T. ) ;
#74 = FACE_OUTER_BOUND ( 'NONE', #232, .T. ) ;
#75 = DIRECTION ( 'NONE',  ( -1.000000000000000000, -0.0000000000000000000, -0.0000000000000000000 ) ) ;
#76 = CARTESIAN_POINT ( 'NONE',  ( -46.22222222222222143, 0.0000000000000000000, 25.00000000000000000 ) ) ;
#77 = CONICAL_SURFACE ( 'NONE', #90, 12.00000000000000000, 0.7853981633974587151 ) ;
#78 = DIRECTION ( 'NONE',  ( -1.000000000000000000, 0.0000000000000000000, -0.0000000000000000000 ) ) ;
#79 = DIRECTION ( 'NONE',  ( -1.000000000000000000, -0.0000000000000000000, -0.0000000000000000000 ) ) ;
#80 = CARTESIAN_POINT ( 'NONE',  ( -5.517094017094013481, 1.469576158976823947E-15, -12.00000000000000000 ) ) ;
#81 = ORIENTED_EDGE ( 'NONE', *, *, #239, .T. ) ;
#82 = CIRCLE ( 'NONE', #42, 25.00000000000000000 ) ;
#83 = FILL_AREA_STYLE_COLOUR ( '', #144 ) ;
#84 = CARTESIAN_POINT ( 'NONE',  ( -5.517094017094013481, 1.469576158976823947E-15, -12.00000000000000000 ) ) ;
#85 = ORIENTED_EDGE ( 'NONE', *, *, #153, .F. ) ;
#86 = SURFACE_SIDE_STYLE ('',( #55 ) ) ;
#87 = CARTESIAN_POINT ( 'NONE',  ( 41.98290598290599007, 3.061616997868383043E-15, -25.00000000000000000 ) ) ;
#88 = ORIENTED_EDGE ( 'NONE', *, *, #291, .F. ) ;
#89 = ORIENTED_EDGE ( 'NONE', *, *, #308, .F. ) ;
#90 = AXIS2_PLACEMENT_3D ( 'NONE', #23, #3, #265 ) ;
#91 = DIRECTION ( 'NONE',  ( 0.0000000000000000000, 0.0000000000000000000, 1.000000000000000000 ) ) ;
#92 = AXIS2_PLACEMENT_3D ( 'NONE', #226, #151, #154 ) ;
#93 = ORIENTED_EDGE ( 'NONE', *, *, #96, .T. ) ;
#94 = PLANE ( 'NONE',  #45 ) ;
#95 = VECTOR ( 'NONE', #1, 1000.000000000000000 ) ;
#96 = EDGE_CURVE ( 'NONE', #63, #17, #292, .T. ) ;
#97 = DIRECTION ( 'NONE',  ( 0.7071067811865463515, 8.659560562354948882E-17, 0.7071067811865487940 ) ) ;
#98 = ADVANCED_FACE ( 'NONE', ( #71 ), #198, .F. ) ;
#99 = CARTESIAN_POINT ( 'NONE',  ( -46.22222222222222143, 0.0000000000000000000, 12.00000000000000000 ) ) ;
#100 = FACE_BOUND ( 'NONE', #202, .T. ) ;
#101 = AXIS2_PLACEMENT_3D ( 'NONE', #193, #148, #218 ) ;
#102 = PRODUCT_DEFINITION_FORMATION_WITH_SPECIFIED_SOURCE ( 'ANY', '', #271, .NOT_KNOWN. ) ;
#103 = LINE ( 'NONE', #34, #247 ) ;
#104 = PLANE ( 'NONE',  #219 ) ;
#105 = ADVANCED_FACE ( 'NONE', ( #175 ), #132, .F. ) ;
#106 = DIRECTION ( 'NONE',  ( 0.0000000000000000000, 0.0000000000000000000, 1.000000000000000000 ) ) ;
#107 = CARTESIAN_POINT ( 'NONE',  ( -46.22222222222222143, 0.0000000000000000000, 0.0000000000000000000 ) ) ;
#108 = STYLED_ITEM ( 'NONE', ( #49 ), #44 ) ;
#109 = ORIENTED_EDGE ( 'NONE', *, *, #214, .F. ) ;
#110 = CARTESIAN_POINT ( 'NONE',  ( -6.017094017094014369, 3.061616997868383043E-15, -25.00000000000000000 ) ) ;
#111 = ORIENTED_EDGE ( 'NONE', *, *, #59, .F. ) ;
#112 =( LENGTH_UNIT ( ) NAMED_UNIT ( * ) SI_UNIT ( .MILLI., .METRE. ) );
#113 = APPLICATION_CONTEXT ( 'automotive_design' ) ;
#114 = PRODUCT_RELATED_PRODUCT_CATEGORY ( 'part', '', ( #271 ) ) ;
#115 = VERTEX_POINT ( 'NONE', #241 ) ;
#116 = DIRECTION ( 'NONE',  ( 1.000000000000000000, 0.0000000000000000000, 0.0000000000000000000 ) ) ;
#117 = VERTEX_POINT ( 'NONE', #270 ) ;
#118 = CONICAL_SURFACE ( 'NONE', #125, 12.50000000000000178, 0.7853981633974500554 ) ;
#119 = EDGE_LOOP ( 'NONE', ( #259, #142 ) ) ;
#120 = ADVANCED_FACE ( 'NONE', ( #52 ), #296, .T. ) ;
#121 = VECTOR ( 'NONE', #251, 1000.000000000000000 ) ;
#122 = ADVANCED_FACE ( 'NONE', ( #174 ), #177, .T. ) ;
#123 = DIRECTION ( 'NONE',  ( -1.000000000000000000, -0.0000000000000000000, -0.0000000000000000000 ) ) ;
#124 = CIRCLE ( 'NONE', #274, 12.00000000000000000 ) ;
#125 = AXIS2_PLACEMENT_3D ( 'NONE', #223, #31, #6 ) ;
#126 = SURFACE_SIDE_STYLE ('',( #196 ) ) ;
#127 = EDGE_CURVE ( 'NONE', #234, #60, #82, .T. ) ;
#128 = UNCERTAINTY_MEASURE_WITH_UNIT (LENGTH_MEASURE( 1.000000000000000082E-05 ), #220, 'distance_accuracy_value', 'NONE');
#129 = CARTESIAN_POINT ( 'NONE',  ( 41.48290598290599007, 0.0000000000000000000, 12.00000000000000000 ) ) ;
#130 = FACE_OUTER_BOUND ( 'NONE', #250, .T. ) ;
#131 = DIRECTION ( 'NONE',  ( -1.000000000000000000, -0.0000000000000000000, -0.0000000000000000000 ) ) ;
#132 = CONICAL_SURFACE ( 'NONE', #170, 12.50000000000000178, 0.7853981633974500554 ) ;
#133 = DIRECTION ( 'NONE',  ( 1.000000000000000000, 0.0000000000000000000, 0.0000000000000000000 ) ) ;
#134 = ADVANCED_FACE ( 'NONE', ( #100, #58 ), #104, .F. ) ;
#135 = CARTESIAN_POINT ( 'NONE',  ( 41.48290598290599007, 0.0000000000000000000, 0.0000000000000000000 ) ) ;
#136 = DIRECTION ( 'NONE',  ( 0.0000000000000000000, 0.0000000000000000000, 1.000000000000000000 ) ) ;
#137 = VERTEX_POINT ( 'NONE', #204 ) ;
#138 =( NAMED_UNIT ( * ) PLANE_ANGLE_UNIT ( ) SI_UNIT ( $, .RADIAN. ) );
#139 = VECTOR ( 'NONE', #123, 1000.000000000000000 ) ;
#140 = VERTEX_POINT ( 'NONE', #200 ) ;
#141 = ORIENTED_EDGE ( 'NONE', *, *, #295, .F. ) ;
#142 = ORIENTED_EDGE ( 'NONE', *, *, #289, .T. ) ;
#143 = EDGE_LOOP ( 'NONE', ( #184, #182, #14, #166 ) ) ;
#144 = COLOUR_RGB ( '',0.7921568627450980005, 0.8196078431372548767, 0.9333333333333333481 ) ;
#145 = MECHANICAL_DESIGN_GEOMETRIC_PRESENTATION_REPRESENTATION (  '', ( #5 ), #238 ) ;
#146 = CARTESIAN_POINT ( 'NONE',  ( 41.98290598290599007, 0.0000000000000000000, 0.0000000000000000000 ) ) ;
#147 = DIRECTION ( 'NONE',  ( 0.0000000000000000000, 0.0000000000000000000, -1.000000000000000000 ) ) ;
#148 = DIRECTION ( 'NONE',  ( -1.000000000000000000, 0.0000000000000000000, 0.0000000000000000000 ) ) ;
#149 = SURFACE_STYLE_USAGE ( .BOTH. , #126 ) ;
#150 = CARTESIAN_POINT ( 'NONE',  ( -46.22222222222222143, 0.0000000000000000000, 0.0000000000000000000 ) ) ;
#151 = DIRECTION ( 'NONE',  ( -1.000000000000000000, -0.0000000000000000000, -0.0000000000000000000 ) ) ;
#152 = APPLICATION_CONTEXT ( 'automotive_design' ) ;
#153 = EDGE_CURVE ( 'NONE', #284, #115, #160, .T. ) ;
#154 = DIRECTION ( 'NONE',  ( 0.0000000000000000000, 0.0000000000000000000, 1.000000000000000000 ) ) ;
#155 = AXIS2_PLACEMENT_3D ( 'NONE', #183, #282, #164 ) ;
#156 =( NAMED_UNIT ( * ) SI_UNIT ( $, .STERADIAN. ) SOLID_ANGLE_UNIT ( ) );
#157 = CARTESIAN_POINT ( 'NONE',  ( 41.98290598290599007, 25.00000000000000000, 0.0000000000000000000 ) ) ;
#158 = ORIENTED_EDGE ( 'NONE', *, *, #2, .T. ) ;
#159 = PRESENTATION_STYLE_ASSIGNMENT (( #61 ) ) ;
#160 = LINE ( 'NONE', #84, #286 ) ;
#161 = EDGE_CURVE ( 'NONE', #17, #117, #273, .T. ) ;
#162 = ORIENTED_EDGE ( 'NONE', *, *, #295, .T. ) ;
#163 = DIRECTION ( 'NONE',  ( -1.000000000000000000, -0.0000000000000000000, -0.0000000000000000000 ) ) ;
#164 = DIRECTION ( 'NONE',  ( 0.0000000000000000000, 0.0000000000000000000, 1.000000000000000000 ) ) ;
#165 = CLOSED_SHELL ( 'NONE', ( #264, #70, #43, #120, #40, #122, #134, #244, #98, #105 ) ) ;
#166 = ORIENTED_EDGE ( 'NONE', *, *, #96, .F. ) ;
#167 =( NAMED_UNIT ( * ) PLANE_ANGLE_UNIT ( ) SI_UNIT ( $, .RADIAN. ) );
#168 = ORIENTED_EDGE ( 'NONE', *, *, #189, .T. ) ;
#169 = ORIENTED_EDGE ( 'NONE', *, *, #239, .F. ) ;
#170 = AXIS2_PLACEMENT_3D ( 'NONE', #146, #48, #147 ) ;
#171 = CARTESIAN_POINT ( 'NONE',  ( -5.517094017094013481, 0.0000000000000000000, 12.00000000000000000 ) ) ;
#172 = FACE_BOUND ( 'NONE', #35, .T. ) ;
#173 = FACE_OUTER_BOUND ( 'NONE', #143, .T. ) ;
#174 = FACE_OUTER_BOUND ( 'NONE', #38, .T. ) ;
#175 = FACE_OUTER_BOUND ( 'NONE', #179, .T. ) ;
#176 = DIRECTION ( 'NONE',  ( -1.000000000000000000, -0.0000000000000000000, -0.0000000000000000000 ) ) ;
#177 = CYLINDRICAL_SURFACE ( 'NONE', #186, 25.00000000000000000 ) ;
#178 = AXIS2_PLACEMENT_3D ( 'NONE', #150, #75, #245 ) ;
#179 = EDGE_LOOP ( 'NONE', ( #277, #141, #213, #89 ) ) ;
#180 = DIRECTION ( 'NONE',  ( -1.000000000000000000, -0.0000000000000000000, -0.0000000000000000000 ) ) ;
#181 = LINE ( 'NONE', #13, #29 ) ;
#182 = ORIENTED_EDGE ( 'NONE', *, *, #191, .T. ) ;
#183 = CARTESIAN_POINT ( 'NONE',  ( 41.98290598290599007, 0.0000000000000000000, 0.0000000000000000000 ) ) ;
#184 = ORIENTED_EDGE ( 'NONE', *, *, #211, .T. ) ;
#185 = DIRECTION ( 'NONE',  ( 0.0000000000000000000, 0.0000000000000000000, 1.000000000000000000 ) ) ;
#186 = AXIS2_PLACEMENT_3D ( 'NONE', #107, #279, #136 ) ;
#187 = ORIENTED_EDGE ( 'NONE', *, *, #257, .T. ) ;
#188 = CARTESIAN_POINT ( 'NONE',  ( -5.517094017094013481, 0.0000000000000000000, 0.0000000000000000000 ) ) ;
#189 = EDGE_CURVE ( 'NONE', #234, #206, #181, .T. ) ;
#190 = FILL_AREA_STYLE ('',( #266 ) ) ;
#191 = EDGE_CURVE ( 'NONE', #252, #284, #103, .T. ) ;
#192 = UNCERTAINTY_MEASURE_WITH_UNIT (LENGTH_MEASURE( 1.000000000000000082E-05 ), #112, 'distance_accuracy_value', 'NONE');
#193 = CARTESIAN_POINT ( 'NONE',  ( -5.517094017094013481, 0.0000000000000000000, 0.0000000000000000000 ) ) ;
#194 = PRESENTATION_LAYER_ASSIGNMENT (  '', '', ( #108 ) ) ;
#195 = CIRCLE ( 'NONE', #199, 12.00000000000000000 ) ;
#196 = SURFACE_STYLE_FILL_AREA ( #190 ) ;
#197 = DIRECTION ( 'NONE',  ( -1.000000000000000000, 0.0000000000000000000, 0.0000000000000000000 ) ) ;
#198 = CONICAL_SURFACE ( 'NONE', #64, 12.00000000000000000, 0.7853981633974587151 ) ;
#199 = AXIS2_PLACEMENT_3D ( 'NONE', #135, #253, #185 ) ;
#200 = CARTESIAN_POINT ( 'NONE',  ( 41.98290598290599007, 0.0000000000000000000, -12.49999999999999467 ) ) ;
#201 = PRODUCT_DEFINITION ( 'UNKNOWN', '', #102, #300 ) ;
#202 = EDGE_LOOP ( 'NONE', ( #81, #312 ) ) ;
#203 = DIRECTION ( 'NONE',  ( 0.0000000000000000000, 0.0000000000000000000, -1.000000000000000000 ) ) ;
#204 = CARTESIAN_POINT ( 'NONE',  ( 41.98290598290599007, 1.530808498934190930E-15, 12.49999999999999467 ) ) ;
#205 =( GEOMETRIC_REPRESENTATION_CONTEXT ( 3 ) GLOBAL_UNCERTAINTY_ASSIGNED_CONTEXT ( ( #128 ) ) GLOBAL_UNIT_ASSIGNED_CONTEXT ( ( #220, #243, #294 ) ) REPRESENTATION_CONTEXT ( 'NONE', 'WORKASPACE' ) );
#206 = VERTEX_POINT ( 'NONE', #110 ) ;
#207 = DIRECTION ( 'NONE',  ( 0.0000000000000000000, 0.0000000000000000000, 1.000000000000000000 ) ) ;
#208 = EDGE_LOOP ( 'NONE', ( #85, #287, #10, #88 ) ) ;
#209 = APPLICATION_PROTOCOL_DEFINITION ( 'draft international standard', 'automotive_design', 1998, #152 ) ;
#210 = ORIENTED_EDGE ( 'NONE', *, *, #59, .T. ) ;
#211 = EDGE_CURVE ( 'NONE', #63, #252, #212, .T. ) ;
#212 = CIRCLE ( 'NONE', #22, 12.00000000000000000 ) ;
#213 = ORIENTED_EDGE ( 'NONE', *, *, #275, .T. ) ;
#214 = EDGE_CURVE ( 'NONE', #258, #206, #293, .T. ) ;
#215 = AXIS2_PLACEMENT_3D ( 'NONE', #313, #290, #217 ) ;
#216 = CIRCLE ( 'NONE', #263, 25.00000000000000000 ) ;
#217 = DIRECTION ( 'NONE',  ( 0.0000000000000000000, 0.0000000000000000000, 1.000000000000000000 ) ) ;
#218 = DIRECTION ( 'NONE',  ( 0.0000000000000000000, 0.0000000000000000000, -1.000000000000000000 ) ) ;
#219 = AXIS2_PLACEMENT_3D ( 'NONE', #157, #78, #309 ) ;
#220 =( LENGTH_UNIT ( ) NAMED_UNIT ( * ) SI_UNIT ( .MILLI., .METRE. ) );
#221 = ORIENTED_EDGE ( 'NONE', *, *, #127, .T. ) ;
#222 = LINE ( 'NONE', #24, #262 ) ;
#223 = CARTESIAN_POINT ( 'NONE',  ( 41.98290598290599007, 0.0000000000000000000, 0.0000000000000000000 ) ) ;
#224 = ORIENTED_EDGE ( 'NONE', *, *, #127, .F. ) ;
#225 = PRESENTATION_LAYER_ASSIGNMENT (  '', '', ( #5 ) ) ;
#226 = CARTESIAN_POINT ( 'NONE',  ( -6.017094017094014369, 0.0000000000000000000, 0.0000000000000000000 ) ) ;
#227 = DIRECTION ( 'NONE',  ( 0.0000000000000000000, 0.0000000000000000000, 1.000000000000000000 ) ) ;
#228 = DIRECTION ( 'NONE',  ( -1.000000000000000000, -0.0000000000000000000, -0.0000000000000000000 ) ) ;
#229 = ORIENTED_EDGE ( 'NONE', *, *, #73, .T. ) ;
#230 = DIRECTION ( 'NONE',  ( 0.0000000000000000000, 0.0000000000000000000, 1.000000000000000000 ) ) ;
#231 = CIRCLE ( 'NONE', #155, 12.49999999999999467 ) ;
#232 = EDGE_LOOP ( 'NONE', ( #311, #21, #41, #310 ) ) ;
#233 = ORIENTED_EDGE ( 'NONE', *, *, #289, .F. ) ;
#234 = VERTEX_POINT ( 'NONE', #87 ) ;
#235 = CARTESIAN_POINT ( 'NONE',  ( 41.98290598290599007, 0.0000000000000000000, 0.0000000000000000000 ) ) ;
#236 = ORIENTED_EDGE ( 'NONE', *, *, #191, .F. ) ;
#237 = MECHANICAL_DESIGN_GEOMETRIC_PRESENTATION_REPRESENTATION (  '', ( #108 ), #205 ) ;
#238 =( GEOMETRIC_REPRESENTATION_CONTEXT ( 3 ) GLOBAL_UNCERTAINTY_ASSIGNED_CONTEXT ( ( #240 ) ) GLOBAL_UNIT_ASSIGNED_CONTEXT ( ( #285, #167, #33 ) ) REPRESENTATION_CONTEXT ( 'NONE', 'WORKASPACE' ) );
#239 = EDGE_CURVE ( 'NONE', #140, #137, #231, .T. ) ;
#240 = UNCERTAINTY_MEASURE_WITH_UNIT (LENGTH_MEASURE( 1.000000000000000082E-05 ), #285, 'distance_accuracy_value', 'NONE');
#241 = CARTESIAN_POINT ( 'NONE',  ( -6.017094017094014369, 1.530808498934192902E-15, -12.50000000000001066 ) ) ;
#242 = AXIS2_PLACEMENT_3D ( 'NONE', #39, #91, #15 ) ;
#243 =( NAMED_UNIT ( * ) PLANE_ANGLE_UNIT ( ) SI_UNIT ( $, .RADIAN. ) );
#244 = ADVANCED_FACE ( 'NONE', ( #301 ), #62, .F. ) ;
#245 = DIRECTION ( 'NONE',  ( 0.0000000000000000000, 0.0000000000000000000, 1.000000000000000000 ) ) ;
#246 = CARTESIAN_POINT ( 'NONE',  ( 41.98290598290599007, 0.0000000000000000000, 0.0000000000000000000 ) ) ;
#247 = VECTOR ( 'NONE', #131, 1000.000000000000000 ) ;
#248 = CARTESIAN_POINT ( 'NONE',  ( 41.48290598290599007, 1.469576158976823947E-15, -12.00000000000000000 ) ) ;
#249 = CARTESIAN_POINT ( 'NONE',  ( -6.017094017094014369, 0.0000000000000000000, 25.00000000000000000 ) ) ;
#250 = EDGE_LOOP ( 'NONE', ( #66, #229, #169, #32 ) ) ;
#251 = DIRECTION ( 'NONE',  ( -0.7071067811865401342, 0.0000000000000000000, 0.7071067811865549002 ) ) ;
#252 = VERTEX_POINT ( 'NONE', #248 ) ;
#253 = DIRECTION ( 'NONE',  ( 1.000000000000000000, -0.0000000000000000000, -0.0000000000000000000 ) ) ;
#254 = CARTESIAN_POINT ( 'NONE',  ( -46.22222222222222143, 0.0000000000000000000, 0.0000000000000000000 ) ) ;
#255 = CIRCLE ( 'NONE', #25, 12.49999999999999467 ) ;
#256 = ORIENTED_EDGE ( 'NONE', *, *, #268, .F. ) ;
#257 = EDGE_CURVE ( 'NONE', #117, #115, #65, .T. ) ;
#258 = VERTEX_POINT ( 'NONE', #249 ) ;
#259 = ORIENTED_EDGE ( 'NONE', *, *, #214, .T. ) ;
#260 = VECTOR ( 'NONE', #302, 1000.000000000000000 ) ;
#261 = DIRECTION ( 'NONE',  ( 0.0000000000000000000, 0.0000000000000000000, -1.000000000000000000 ) ) ;
#262 = VECTOR ( 'NONE', #97, 1000.000000000000000 ) ;
#263 = AXIS2_PLACEMENT_3D ( 'NONE', #246, #79, #227 ) ;
#264 = ADVANCED_FACE ( 'NONE', ( #130 ), #118, .F. ) ;
#265 = DIRECTION ( 'NONE',  ( 0.0000000000000000000, 0.0000000000000000000, 1.000000000000000000 ) ) ;
#266 = FILL_AREA_STYLE_COLOUR ( '', #298 ) ;
#267 = DIRECTION ( 'NONE',  ( 1.000000000000000000, 0.0000000000000000000, 0.0000000000000000000 ) ) ;
#268 = EDGE_CURVE ( 'NONE', #60, #234, #216, .T. ) ;
#269 = AXIS2_PLACEMENT_3D ( 'NONE', #11, #116, #8 ) ;
#270 = CARTESIAN_POINT ( 'NONE',  ( -6.017094017094014369, 0.0000000000000000000, 12.50000000000001066 ) ) ;
#271 = PRODUCT ( 'BRM 24x5', 'BRM 24x5', '', ( #304 ) ) ;
#272 = DIRECTION ( 'NONE',  ( 0.0000000000000000000, 0.0000000000000000000, 1.000000000000000000 ) ) ;
#273 = LINE ( 'NONE', #4, #121 ) ;
#274 = AXIS2_PLACEMENT_3D ( 'NONE', #188, #288, #68 ) ;
#275 = EDGE_CURVE ( 'NONE', #252, #140, #28, .T. ) ;
#276 = DIRECTION ( 'NONE',  ( 1.000000000000000000, -0.0000000000000000000, -0.0000000000000000000 ) ) ;
#277 = ORIENTED_EDGE ( 'NONE', *, *, #73, .F. ) ;
#278 = FILL_AREA_STYLE ('',( #83 ) ) ;
#279 = DIRECTION ( 'NONE',  ( -1.000000000000000000, -0.0000000000000000000, -0.0000000000000000000 ) ) ;
#280 = ORIENTED_EDGE ( 'NONE', *, *, #291, .T. ) ;
#281 = SHAPE_DEFINITION_REPRESENTATION ( #283, #16 ) ;
#282 = DIRECTION ( 'NONE',  ( -1.000000000000000000, -0.0000000000000000000, -0.0000000000000000000 ) ) ;
#283 = PRODUCT_DEFINITION_SHAPE ( 'NONE', 'NONE',  #201 ) ;
#284 = VERTEX_POINT ( 'NONE', #80 ) ;
#285 =( LENGTH_UNIT ( ) NAMED_UNIT ( * ) SI_UNIT ( .MILLI., .METRE. ) );
#286 = VECTOR ( 'NONE', #9, 1000.000000000000000 ) ;
#287 = ORIENTED_EDGE ( 'NONE', *, *, #2, .F. ) ;
#288 = DIRECTION ( 'NONE',  ( -1.000000000000000000, 0.0000000000000000000, 0.0000000000000000000 ) ) ;
#289 = EDGE_CURVE ( 'NONE', #206, #258, #305, .T. ) ;
#290 = DIRECTION ( 'NONE',  ( -1.000000000000000000, -0.0000000000000000000, -0.0000000000000000000 ) ) ;
#291 = EDGE_CURVE ( 'NONE', #115, #117, #299, .T. ) ;
#292 = LINE ( 'NONE', #99, #139 ) ;
#293 = CIRCLE ( 'NONE', #92, 25.00000000000000000 ) ;
#294 =( NAMED_UNIT ( * ) SI_UNIT ( $, .STERADIAN. ) SOLID_ANGLE_UNIT ( ) );
#295 = EDGE_CURVE ( 'NONE', #252, #63, #195, .T. ) ;
#296 = CYLINDRICAL_SURFACE ( 'NONE', #178, 25.00000000000000000 ) ;
#297 = DIRECTION ( 'NONE',  ( 0.0000000000000000000, 0.0000000000000000000, 1.000000000000000000 ) ) ;
#298 = COLOUR_RGB ( '',0.7921568627450980005, 0.8196078431372548767, 0.9333333333333333481 ) ;
#299 = CIRCLE ( 'NONE', #269, 12.50000000000001066 ) ;
#300 = PRODUCT_DEFINITION_CONTEXT ( 'detailed design', #152, 'design' ) ;
#301 = FACE_OUTER_BOUND ( 'NONE', #307, .T. ) ;
#302 = DIRECTION ( 'NONE',  ( 0.7071067811865463515, 0.0000000000000000000, -0.7071067811865487940 ) ) ;
#303 = EDGE_LOOP ( 'NONE', ( #256, #224 ) ) ;
#304 = PRODUCT_CONTEXT ( 'NONE', #113, 'mechanical' ) ;
#305 = CIRCLE ( 'NONE', #20, 25.00000000000000000 ) ;
#306 = CARTESIAN_POINT ( 'NONE',  ( 41.98290598290599007, 0.0000000000000000000, 0.0000000000000000000 ) ) ;
#307 = EDGE_LOOP ( 'NONE', ( #236, #162, #93, #158 ) ) ;
#308 = EDGE_CURVE ( 'NONE', #137, #140, #255, .T. ) ;
#309 = DIRECTION ( 'NONE',  ( -0.0000000000000000000, 0.0000000000000000000, 1.000000000000000000 ) ) ;
#310 = ORIENTED_EDGE ( 'NONE', *, *, #161, .F. ) ;
#311 = ORIENTED_EDGE ( 'NONE', *, *, #12, .F. ) ;
#312 = ORIENTED_EDGE ( 'NONE', *, *, #308, .T. ) ;
#313 = CARTESIAN_POINT ( 'NONE',  ( -46.22222222222222143, 0.0000000000000000000, 0.0000000000000000000 ) ) ;
#314 = CARTESIAN_POINT ( 'NONE',  ( -6.017094017094014369, 12.00000000000000000, 0.0000000000000000000 ) ) ;
ENDSEC;
END-ISO-10303-21;
