ISO-10303-21;
HEADER;
FILE_DESCRIPTION (( 'STEP AP214' ),
    '1' );
FILE_NAME ('BRM 25x5.step',
    '2020-09-08T10:23:18',
    ( '' ),
    ( '' ),
    'SwSTEP 2.0',
    'SolidWorks 2020',
    '' );
FILE_SCHEMA (( 'AUTOMOTIVE_DESIGN' ));
ENDSEC;

DATA;
#1 = CARTESIAN_POINT ( 'NONE',  ( 43.48290598290599718, 0.0000000000000000000, 0.0000000000000000000 ) ) ;
#2 = DIRECTION ( 'NONE',  ( 0.0000000000000000000, 0.0000000000000000000, 1.000000000000000000 ) ) ;
#3 = AXIS2_PLACEMENT_3D ( 'NONE', #7, #111, #155 ) ;
#4 =( NAMED_UNIT ( * ) PLANE_ANGLE_UNIT ( ) SI_UNIT ( $, .RADIAN. ) );
#5 = PRODUCT_RELATED_PRODUCT_CATEGORY ( 'part', '', ( #126 ) ) ;
#6 = DIRECTION ( 'NONE',  ( 1.000000000000000000, 0.0000000000000000000, 0.0000000000000000000 ) ) ;
#7 = CARTESIAN_POINT ( 'NONE',  ( -5.517094017094020586, 0.0000000000000000000, 0.0000000000000000000 ) ) ;
#8 = CIRCLE ( 'NONE', #101, 12.50000000000000000 ) ;
#9 = ADVANCED_BREP_SHAPE_REPRESENTATION ( 'BRM 25x5', ( #182, #299 ), #199 ) ;
#10 = LINE ( 'NONE', #271, #73 ) ;
#11 = VECTOR ( 'NONE', #268, 1000.000000000000114 ) ;
#12 = VERTEX_POINT ( 'NONE', #238 ) ;
#13 = ORIENTED_EDGE ( 'NONE', *, *, #76, .T. ) ;
#14 = VERTEX_POINT ( 'NONE', #50 ) ;
#15 = AXIS2_PLACEMENT_3D ( 'NONE', #179, #97, #129 ) ;
#16 = EDGE_LOOP ( 'NONE', ( #66, #282 ) ) ;
#17 = EDGE_CURVE ( 'NONE', #12, #285, #226, .T. ) ;
#18 = CARTESIAN_POINT ( 'NONE',  ( -46.22222222222222143, 0.0000000000000000000, 0.0000000000000000000 ) ) ;
#19 = CIRCLE ( 'NONE', #46, 12.99999999999999822 ) ;
#20 = DIRECTION ( 'NONE',  ( 0.0000000000000000000, 0.0000000000000000000, -1.000000000000000000 ) ) ;
#21 = CYLINDRICAL_SURFACE ( 'NONE', #248, 12.50000000000000000 ) ;
#22 = EDGE_CURVE ( 'NONE', #14, #166, #312, .T. ) ;
#23 = DIRECTION ( 'NONE',  ( -0.0000000000000000000, 0.0000000000000000000, 1.000000000000000000 ) ) ;
#24 = CIRCLE ( 'NONE', #134, 12.99999999999999822 ) ;
#25 = DIRECTION ( 'NONE',  ( -1.000000000000000000, -0.0000000000000000000, -0.0000000000000000000 ) ) ;
#26 = FACE_OUTER_BOUND ( 'NONE', #310, .T. ) ;
#27 = UNCERTAINTY_MEASURE_WITH_UNIT (LENGTH_MEASURE( 1.000000000000000082E-05 ), #132, 'distance_accuracy_value', 'NONE');
#28 =( NAMED_UNIT ( * ) SI_UNIT ( $, .STERADIAN. ) SOLID_ANGLE_UNIT ( ) );
#29 = DIRECTION ( 'NONE',  ( 0.0000000000000000000, 0.0000000000000000000, 1.000000000000000000 ) ) ;
#30 = ADVANCED_FACE ( 'NONE', ( #148, #289 ), #244, .F. ) ;
#31 = CARTESIAN_POINT ( 'NONE',  ( -46.22222222222222143, 0.0000000000000000000, 25.00000000000000000 ) ) ;
#32 = CARTESIAN_POINT ( 'NONE',  ( -6.017094017094014369, 0.0000000000000000000, 0.0000000000000000000 ) ) ;
#33 = EDGE_CURVE ( 'NONE', #166, #14, #267, .T. ) ;
#34 = CARTESIAN_POINT ( 'NONE',  ( -5.517094017094020586, 0.0000000000000000000, 12.50000000000000000 ) ) ;
#35 = SURFACE_STYLE_FILL_AREA ( #270 ) ;
#36 = DIRECTION ( 'NONE',  ( 0.0000000000000000000, 0.0000000000000000000, 1.000000000000000000 ) ) ;
#37 = ORIENTED_EDGE ( 'NONE', *, *, #125, .F. ) ;
#38 = EDGE_LOOP ( 'NONE', ( #114, #192 ) ) ;
#39 = ORIENTED_EDGE ( 'NONE', *, *, #49, .F. ) ;
#40 = ORIENTED_EDGE ( 'NONE', *, *, #17, .F. ) ;
#41 = PRODUCT_DEFINITION_FORMATION_WITH_SPECIFIED_SOURCE ( 'ANY', '', #126, .NOT_KNOWN. ) ;
#42 = ORIENTED_EDGE ( 'NONE', *, *, #235, .T. ) ;
#43 = UNCERTAINTY_MEASURE_WITH_UNIT (LENGTH_MEASURE( 1.000000000000000082E-05 ), #210, 'distance_accuracy_value', 'NONE');
#44 = CARTESIAN_POINT ( 'NONE',  ( 43.98290598290599718, 0.0000000000000000000, 0.0000000000000000000 ) ) ;
#45 = CARTESIAN_POINT ( 'NONE',  ( -46.22222222222222143, 0.0000000000000000000, 12.50000000000000000 ) ) ;
#46 = AXIS2_PLACEMENT_3D ( 'NONE', #32, #6, #211 ) ;
#47 = PRESENTATION_LAYER_ASSIGNMENT (  '', '', ( #163 ) ) ;
#48 = DIRECTION ( 'NONE',  ( 1.000000000000000000, 0.0000000000000000000, 0.0000000000000000000 ) ) ;
#49 = EDGE_CURVE ( 'NONE', #255, #213, #24, .T. ) ;
#50 = CARTESIAN_POINT ( 'NONE',  ( 43.98290598290599718, 3.061616997868383043E-15, -25.00000000000000000 ) ) ;
#51 = LINE ( 'NONE', #154, #236 ) ;
#52 = AXIS2_PLACEMENT_3D ( 'NONE', #124, #48, #294 ) ;
#53 = LINE ( 'NONE', #60, #253 ) ;
#54 = ADVANCED_FACE ( 'NONE', ( #245 ), #70, .T. ) ;
#55 = DIRECTION ( 'NONE',  ( 0.0000000000000000000, 0.0000000000000000000, 1.000000000000000000 ) ) ;
#56 = FACE_OUTER_BOUND ( 'NONE', #237, .T. ) ;
#57 = ORIENTED_EDGE ( 'NONE', *, *, #104, .T. ) ;
#58 = FILL_AREA_STYLE_COLOUR ( '', #283 ) ;
#59 = AXIS2_PLACEMENT_3D ( 'NONE', #44, #153, #201 ) ;
#60 = CARTESIAN_POINT ( 'NONE',  ( -5.517094017094020586, 1.530808498934191521E-15, -12.50000000000000000 ) ) ;
#61 = VERTEX_POINT ( 'NONE', #204 ) ;
#62 = ORIENTED_EDGE ( 'NONE', *, *, #308, .F. ) ;
#63 = AXIS2_PLACEMENT_3D ( 'NONE', #175, #152, #220 ) ;
#64 = ORIENTED_EDGE ( 'NONE', *, *, #265, .T. ) ;
#65 = APPLICATION_CONTEXT ( 'automotive_design' ) ;
#66 = ORIENTED_EDGE ( 'NONE', *, *, #33, .F. ) ;
#67 = EDGE_CURVE ( 'NONE', #258, #285, #290, .T. ) ;
#68 = ORIENTED_EDGE ( 'NONE', *, *, #235, .F. ) ;
#69 = AXIS2_PLACEMENT_3D ( 'NONE', #1, #75, #288 ) ;
#70 = CYLINDRICAL_SURFACE ( 'NONE', #139, 25.00000000000000000 ) ;
#71 = DIRECTION ( 'NONE',  ( 1.000000000000000000, -0.0000000000000000000, -0.0000000000000000000 ) ) ;
#72 = DIRECTION ( 'NONE',  ( -1.000000000000000000, 0.0000000000000000000, -0.0000000000000000000 ) ) ;
#73 = VECTOR ( 'NONE', #186, 1000.000000000000114 ) ;
#74 = CARTESIAN_POINT ( 'NONE',  ( 43.98290598290599718, 0.0000000000000000000, 0.0000000000000000000 ) ) ;
#75 = DIRECTION ( 'NONE',  ( 1.000000000000000000, -0.0000000000000000000, -0.0000000000000000000 ) ) ;
#76 = EDGE_CURVE ( 'NONE', #61, #231, #269, .T. ) ;
#77 = CARTESIAN_POINT ( 'NONE',  ( -5.517094017094020586, 0.0000000000000000000, 0.0000000000000000000 ) ) ;
#78 = DIRECTION ( 'NONE',  ( -1.000000000000000000, -0.0000000000000000000, -0.0000000000000000000 ) ) ;
#79 = AXIS2_PLACEMENT_3D ( 'NONE', #302, #227, #110 ) ;
#80 = APPLICATION_PROTOCOL_DEFINITION ( 'draft international standard', 'automotive_design', 1998, #240 ) ;
#81 = DIRECTION ( 'NONE',  ( 0.0000000000000000000, 0.0000000000000000000, -1.000000000000000000 ) ) ;
#82 = FILL_AREA_STYLE_COLOUR ( '', #249 ) ;
#83 = CARTESIAN_POINT ( 'NONE',  ( 43.98290598290599007, 0.0000000000000000000, -12.99999999999999822 ) ) ;
#84 = PRODUCT_CONTEXT ( 'NONE', #240, 'mechanical' ) ;
#85 = ADVANCED_FACE ( 'NONE', ( #241 ), #151, .F. ) ;
#86 = DIRECTION ( 'NONE',  ( -1.000000000000000000, 0.0000000000000000000, 0.0000000000000000000 ) ) ;
#87 = CIRCLE ( 'NONE', #198, 12.50000000000000000 ) ;
#88 = ADVANCED_FACE ( 'NONE', ( #200 ), #21, .F. ) ;
#89 = ORIENTED_EDGE ( 'NONE', *, *, #293, .F. ) ;
#90 = ORIENTED_EDGE ( 'NONE', *, *, #33, .T. ) ;
#91 =( GEOMETRIC_REPRESENTATION_CONTEXT ( 3 ) GLOBAL_UNCERTAINTY_ASSIGNED_CONTEXT ( ( #43 ) ) GLOBAL_UNIT_ASSIGNED_CONTEXT ( ( #210, #4, #276 ) ) REPRESENTATION_CONTEXT ( 'NONE', 'WORKASPACE' ) );
#92 = ORIENTED_EDGE ( 'NONE', *, *, #22, .T. ) ;
#93 = ADVANCED_FACE ( 'NONE', ( #222 ), #256, .F. ) ;
#94 = ORIENTED_EDGE ( 'NONE', *, *, #149, .T. ) ;
#95 = DIRECTION ( 'NONE',  ( 0.0000000000000000000, 0.0000000000000000000, 1.000000000000000000 ) ) ;
#96 = MECHANICAL_DESIGN_GEOMETRIC_PRESENTATION_REPRESENTATION (  '', ( #230 ), #260 ) ;
#97 = DIRECTION ( 'NONE',  ( -1.000000000000000000, 0.0000000000000000000, 0.0000000000000000000 ) ) ;
#98 = EDGE_CURVE ( 'NONE', #115, #61, #161, .T. ) ;
#99 = LINE ( 'NONE', #45, #272 ) ;
#100 = DIRECTION ( 'NONE',  ( -1.000000000000000000, -0.0000000000000000000, -0.0000000000000000000 ) ) ;
#101 = AXIS2_PLACEMENT_3D ( 'NONE', #275, #108, #135 ) ;
#102 = DIRECTION ( 'NONE',  ( 0.0000000000000000000, 0.0000000000000000000, 1.000000000000000000 ) ) ;
#103 = CYLINDRICAL_SURFACE ( 'NONE', #145, 25.00000000000000000 ) ;
#104 = EDGE_CURVE ( 'NONE', #213, #255, #156, .T. ) ;
#105 = PRODUCT_DEFINITION_SHAPE ( 'NONE', 'NONE',  #194 ) ;
#106 = SURFACE_SIDE_STYLE ('',( #180 ) ) ;
#107 = PRESENTATION_STYLE_ASSIGNMENT (( #164 ) ) ;
#108 = DIRECTION ( 'NONE',  ( 1.000000000000000000, -0.0000000000000000000, -0.0000000000000000000 ) ) ;
#109 =( NAMED_UNIT ( * ) PLANE_ANGLE_UNIT ( ) SI_UNIT ( $, .RADIAN. ) );
#110 = DIRECTION ( 'NONE',  ( 0.0000000000000000000, 0.0000000000000000000, 1.000000000000000000 ) ) ;
#111 = DIRECTION ( 'NONE',  ( -1.000000000000000000, 0.0000000000000000000, 0.0000000000000000000 ) ) ;
#112 = CONICAL_SURFACE ( 'NONE', #15, 12.50000000000000000, 0.7853981633974517207 ) ;
#113 = EDGE_LOOP ( 'NONE', ( #90, #309, #216, #89 ) ) ;
#114 = ORIENTED_EDGE ( 'NONE', *, *, #184, .T. ) ;
#115 = VERTEX_POINT ( 'NONE', #174 ) ;
#116 = CIRCLE ( 'NONE', #292, 25.00000000000000000 ) ;
#117 = ORIENTED_EDGE ( 'NONE', *, *, #133, .F. ) ;
#118 = ORIENTED_EDGE ( 'NONE', *, *, #232, .F. ) ;
#119 = DIRECTION ( 'NONE',  ( -1.000000000000000000, -0.0000000000000000000, -0.0000000000000000000 ) ) ;
#120 = CIRCLE ( 'NONE', #261, 25.00000000000000000 ) ;
#121 = ADVANCED_FACE ( 'NONE', ( #313 ), #112, .F. ) ;
#122 = DIRECTION ( 'NONE',  ( -1.000000000000000000, -0.0000000000000000000, -0.0000000000000000000 ) ) ;
#123 = DIRECTION ( 'NONE',  ( 0.0000000000000000000, 0.0000000000000000000, 1.000000000000000000 ) ) ;
#124 = CARTESIAN_POINT ( 'NONE',  ( -6.017094017094014369, 0.0000000000000000000, 0.0000000000000000000 ) ) ;
#125 = EDGE_CURVE ( 'NONE', #115, #258, #99, .T. ) ;
#126 = PRODUCT ( 'BRM 25x5', 'BRM 25x5', '', ( #84 ) ) ;
#127 = CIRCLE ( 'NONE', #3, 12.50000000000000000 ) ;
#128 = AXIS2_PLACEMENT_3D ( 'NONE', #74, #71, #20 ) ;
#129 = DIRECTION ( 'NONE',  ( 0.0000000000000000000, 0.0000000000000000000, 1.000000000000000000 ) ) ;
#130 = DIRECTION ( 'NONE',  ( 1.000000000000000000, 0.0000000000000000000, 0.0000000000000000000 ) ) ;
#131 = CARTESIAN_POINT ( 'NONE',  ( -6.017094017094014369, 12.50000000000000000, 0.0000000000000000000 ) ) ;
#132 =( LENGTH_UNIT ( ) NAMED_UNIT ( * ) SI_UNIT ( .MILLI., .METRE. ) );
#133 = EDGE_CURVE ( 'NONE', #61, #213, #202, .T. ) ;
#134 = AXIS2_PLACEMENT_3D ( 'NONE', #263, #266, #95 ) ;
#135 = DIRECTION ( 'NONE',  ( 0.0000000000000000000, 0.0000000000000000000, 1.000000000000000000 ) ) ;
#136 = CARTESIAN_POINT ( 'NONE',  ( -6.017094017094014369, 3.061616997868383043E-15, -25.00000000000000000 ) ) ;
#137 = CARTESIAN_POINT ( 'NONE',  ( 43.98290598290599718, 0.0000000000000000000, 25.00000000000000000 ) ) ;
#138 = EDGE_CURVE ( 'NONE', #14, #160, #51, .T. ) ;
#139 = AXIS2_PLACEMENT_3D ( 'NONE', #197, #219, #102 ) ;
#140 = EDGE_LOOP ( 'NONE', ( #144, #42, #286, #233 ) ) ;
#141 = MECHANICAL_DESIGN_GEOMETRIC_PRESENTATION_REPRESENTATION (  '', ( #163 ), #91 ) ;
#142 = ORIENTED_EDGE ( 'NONE', *, *, #178, .T. ) ;
#143 = ORIENTED_EDGE ( 'NONE', *, *, #98, .F. ) ;
#144 = ORIENTED_EDGE ( 'NONE', *, *, #178, .F. ) ;
#145 = AXIS2_PLACEMENT_3D ( 'NONE', #208, #274, #247 ) ;
#146 = PRODUCT_DEFINITION_CONTEXT ( 'detailed design', #65, 'design' ) ;
#147 = EDGE_LOOP ( 'NONE', ( #234, #217, #262, #39 ) ) ;
#148 = FACE_BOUND ( 'NONE', #257, .T. ) ;
#149 = EDGE_CURVE ( 'NONE', #61, #115, #8, .T. ) ;
#150 = CARTESIAN_POINT ( 'NONE',  ( -46.22222222222222143, 1.530808498934191521E-15, -12.50000000000000000 ) ) ;
#151 = CONICAL_SURFACE ( 'NONE', #176, 13.00000000000000533, 0.7853981633974517207 ) ;
#152 = DIRECTION ( 'NONE',  ( -1.000000000000000000, -0.0000000000000000000, -0.0000000000000000000 ) ) ;
#153 = DIRECTION ( 'NONE',  ( -1.000000000000000000, -0.0000000000000000000, -0.0000000000000000000 ) ) ;
#154 = CARTESIAN_POINT ( 'NONE',  ( -46.22222222222222143, 3.061616997868383043E-15, -25.00000000000000000 ) ) ;
#155 = DIRECTION ( 'NONE',  ( 0.0000000000000000000, 0.0000000000000000000, -1.000000000000000000 ) ) ;
#156 = CIRCLE ( 'NONE', #298, 12.99999999999999822 ) ;
#157 = CARTESIAN_POINT ( 'NONE',  ( -6.017094017094014369, 0.0000000000000000000, 0.0000000000000000000 ) ) ;
#158 = LINE ( 'NONE', #31, #203 ) ;
#159 =( NAMED_UNIT ( * ) PLANE_ANGLE_UNIT ( ) SI_UNIT ( $, .RADIAN. ) );
#160 = VERTEX_POINT ( 'NONE', #136 ) ;
#161 = CIRCLE ( 'NONE', #69, 12.50000000000000000 ) ;
#162 = DIRECTION ( 'NONE',  ( -0.7071067811865451302, 8.659560562354963673E-17, -0.7071067811865500152 ) ) ;
#163 = STYLED_ITEM ( 'NONE', ( #107 ), #9 ) ;
#164 = SURFACE_STYLE_USAGE ( .BOTH. , #278 ) ;
#165 = SURFACE_STYLE_USAGE ( .BOTH. , #106 ) ;
#166 = VERTEX_POINT ( 'NONE', #137 ) ;
#167 = ORIENTED_EDGE ( 'NONE', *, *, #76, .F. ) ;
#168 = ORIENTED_EDGE ( 'NONE', *, *, #67, .T. ) ;
#169 = EDGE_CURVE ( 'NONE', #115, #255, #10, .T. ) ;
#170 = ORIENTED_EDGE ( 'NONE', *, *, #232, .T. ) ;
#171 = ORIENTED_EDGE ( 'NONE', *, *, #104, .F. ) ;
#172 = AXIS2_PLACEMENT_3D ( 'NONE', #173, #72, #23 ) ;
#173 = CARTESIAN_POINT ( 'NONE',  ( 43.98290598290599007, 25.00000000000000000, 0.0000000000000000000 ) ) ;
#174 = CARTESIAN_POINT ( 'NONE',  ( 43.48290598290599718, 0.0000000000000000000, 12.50000000000000000 ) ) ;
#175 = CARTESIAN_POINT ( 'NONE',  ( 43.98290598290599718, 0.0000000000000000000, 0.0000000000000000000 ) ) ;
#176 = AXIS2_PLACEMENT_3D ( 'NONE', #177, #221, #239 ) ;
#177 = CARTESIAN_POINT ( 'NONE',  ( 43.98290598290599718, 0.0000000000000000000, 0.0000000000000000000 ) ) ;
#178 = EDGE_CURVE ( 'NONE', #231, #258, #87, .T. ) ;
#179 = CARTESIAN_POINT ( 'NONE',  ( -5.517094017094020586, 0.0000000000000000000, 0.0000000000000000000 ) ) ;
#180 = SURFACE_STYLE_FILL_AREA ( #295 ) ;
#181 = CARTESIAN_POINT ( 'NONE',  ( -46.22222222222222143, 0.0000000000000000000, 0.0000000000000000000 ) ) ;
#182 = MANIFOLD_SOLID_BREP ( 'Chamfer1', #287 ) ;
#183 = CARTESIAN_POINT ( 'NONE',  ( 43.98290598290599007, 1.592040838891558898E-15, 12.99999999999999822 ) ) ;
#184 = EDGE_CURVE ( 'NONE', #285, #12, #19, .T. ) ;
#185 = SHAPE_DEFINITION_REPRESENTATION ( #105, #9 ) ;
#186 = DIRECTION ( 'NONE',  ( 0.7071067811865451302, 8.659560562354962440E-17, 0.7071067811865500152 ) ) ;
#187 = PLANE ( 'NONE',  #306 ) ;
#188 = APPLICATION_PROTOCOL_DEFINITION ( 'draft international standard', 'automotive_design', 1998, #65 ) ;
#189 = ADVANCED_FACE ( 'NONE', ( #300 ), #279, .F. ) ;
#190 = PRESENTATION_STYLE_ASSIGNMENT (( #165 ) ) ;
#191 = EDGE_LOOP ( 'NONE', ( #167, #94, #259, #195 ) ) ;
#192 = ORIENTED_EDGE ( 'NONE', *, *, #17, .T. ) ;
#193 = ORIENTED_EDGE ( 'NONE', *, *, #293, .T. ) ;
#194 = PRODUCT_DEFINITION ( 'UNKNOWN', '', #41, #146 ) ;
#195 = ORIENTED_EDGE ( 'NONE', *, *, #308, .T. ) ;
#196 = VERTEX_POINT ( 'NONE', #209 ) ;
#197 = CARTESIAN_POINT ( 'NONE',  ( -46.22222222222222143, 0.0000000000000000000, 0.0000000000000000000 ) ) ;
#198 = AXIS2_PLACEMENT_3D ( 'NONE', #77, #86, #81 ) ;
#199 =( GEOMETRIC_REPRESENTATION_CONTEXT ( 3 ) GLOBAL_UNCERTAINTY_ASSIGNED_CONTEXT ( ( #27 ) ) GLOBAL_UNIT_ASSIGNED_CONTEXT ( ( #132, #109, #296 ) ) REPRESENTATION_CONTEXT ( 'NONE', 'WORKASPACE' ) );
#200 = FACE_OUTER_BOUND ( 'NONE', #191, .T. ) ;
#201 = DIRECTION ( 'NONE',  ( 0.0000000000000000000, 0.0000000000000000000, 1.000000000000000000 ) ) ;
#202 = LINE ( 'NONE', #291, #11 ) ;
#203 = VECTOR ( 'NONE', #225, 1000.000000000000000 ) ;
#204 = CARTESIAN_POINT ( 'NONE',  ( 43.48290598290599718, 1.530808498934191521E-15, -12.50000000000000000 ) ) ;
#205 = FACE_BOUND ( 'NONE', #38, .T. ) ;
#206 = DIRECTION ( 'NONE',  ( 0.0000000000000000000, 0.0000000000000000000, -1.000000000000000000 ) ) ;
#207 = PRESENTATION_LAYER_ASSIGNMENT (  '', '', ( #230 ) ) ;
#208 = CARTESIAN_POINT ( 'NONE',  ( -46.22222222222222143, 0.0000000000000000000, 0.0000000000000000000 ) ) ;
#209 = CARTESIAN_POINT ( 'NONE',  ( -6.017094017094014369, 0.0000000000000000000, 25.00000000000000000 ) ) ;
#210 =( LENGTH_UNIT ( ) NAMED_UNIT ( * ) SI_UNIT ( .MILLI., .METRE. ) );
#211 = DIRECTION ( 'NONE',  ( 0.0000000000000000000, 0.0000000000000000000, -1.000000000000000000 ) ) ;
#212 = VECTOR ( 'NONE', #314, 1000.000000000000114 ) ;
#213 = VERTEX_POINT ( 'NONE', #83 ) ;
#214 = EDGE_LOOP ( 'NONE', ( #143, #307, #171, #117 ) ) ;
#215 = AXIS2_PLACEMENT_3D ( 'NONE', #181, #78, #29 ) ;
#216 = ORIENTED_EDGE ( 'NONE', *, *, #265, .F. ) ;
#217 = ORIENTED_EDGE ( 'NONE', *, *, #149, .F. ) ;
#218 = DIRECTION ( 'NONE',  ( -1.000000000000000000, -0.0000000000000000000, -0.0000000000000000000 ) ) ;
#219 = DIRECTION ( 'NONE',  ( -1.000000000000000000, -0.0000000000000000000, -0.0000000000000000000 ) ) ;
#220 = DIRECTION ( 'NONE',  ( 0.0000000000000000000, 0.0000000000000000000, 1.000000000000000000 ) ) ;
#221 = DIRECTION ( 'NONE',  ( 1.000000000000000000, -0.0000000000000000000, -0.0000000000000000000 ) ) ;
#222 = FACE_OUTER_BOUND ( 'NONE', #214, .T. ) ;
#223 = UNCERTAINTY_MEASURE_WITH_UNIT (LENGTH_MEASURE( 1.000000000000000082E-05 ), #301, 'distance_accuracy_value', 'NONE');
#224 = CYLINDRICAL_SURFACE ( 'NONE', #215, 12.50000000000000000 ) ;
#225 = DIRECTION ( 'NONE',  ( -1.000000000000000000, -0.0000000000000000000, -0.0000000000000000000 ) ) ;
#226 = CIRCLE ( 'NONE', #52, 12.99999999999999822 ) ;
#227 = DIRECTION ( 'NONE',  ( -1.000000000000000000, 0.0000000000000000000, 0.0000000000000000000 ) ) ;
#228 = FACE_OUTER_BOUND ( 'NONE', #281, .T. ) ;
#229 = ADVANCED_FACE ( 'NONE', ( #205, #228 ), #187, .F. ) ;
#230 = STYLED_ITEM ( 'NONE', ( #190 ), #182 ) ;
#231 = VERTEX_POINT ( 'NONE', #280 ) ;
#232 = EDGE_CURVE ( 'NONE', #160, #196, #120, .T. ) ;
#233 = ORIENTED_EDGE ( 'NONE', *, *, #67, .F. ) ;
#234 = ORIENTED_EDGE ( 'NONE', *, *, #169, .F. ) ;
#235 = EDGE_CURVE ( 'NONE', #231, #12, #53, .T. ) ;
#236 = VECTOR ( 'NONE', #122, 1000.000000000000000 ) ;
#237 = EDGE_LOOP ( 'NONE', ( #304, #13, #142, #37 ) ) ;
#238 = CARTESIAN_POINT ( 'NONE',  ( -6.017094017094014369, 1.592040838891558898E-15, -12.99999999999999822 ) ) ;
#239 = DIRECTION ( 'NONE',  ( 0.0000000000000000000, 0.0000000000000000000, -1.000000000000000000 ) ) ;
#240 = APPLICATION_CONTEXT ( 'automotive_design' ) ;
#241 = FACE_OUTER_BOUND ( 'NONE', #147, .T. ) ;
#242 = VECTOR ( 'NONE', #25, 1000.000000000000000 ) ;
#243 = CARTESIAN_POINT ( 'NONE',  ( -5.517094017094020586, 0.0000000000000000000, 12.50000000000000000 ) ) ;
#244 = PLANE ( 'NONE',  #172 ) ;
#245 = FACE_OUTER_BOUND ( 'NONE', #113, .T. ) ;
#246 = EDGE_LOOP ( 'NONE', ( #68, #62, #168, #40 ) ) ;
#247 = DIRECTION ( 'NONE',  ( 0.0000000000000000000, 0.0000000000000000000, 1.000000000000000000 ) ) ;
#248 = AXIS2_PLACEMENT_3D ( 'NONE', #18, #119, #123 ) ;
#249 = COLOUR_RGB ( '',0.7921568627450980005, 0.8196078431372548767, 0.9333333333333333481 ) ;
#250 = CARTESIAN_POINT ( 'NONE',  ( -6.017094017094014369, 0.0000000000000000000, 12.99999999999999822 ) ) ;
#251 = CARTESIAN_POINT ( 'NONE',  ( 0.0000000000000000000, 0.0000000000000000000, 0.0000000000000000000 ) ) ;
#252 = DIRECTION ( 'NONE',  ( 0.0000000000000000000, 0.0000000000000000000, 1.000000000000000000 ) ) ;
#253 = VECTOR ( 'NONE', #162, 1000.000000000000114 ) ;
#254 = DIRECTION ( 'NONE',  ( -1.000000000000000000, -0.0000000000000000000, -0.0000000000000000000 ) ) ;
#255 = VERTEX_POINT ( 'NONE', #183 ) ;
#256 = CONICAL_SURFACE ( 'NONE', #128, 13.00000000000000533, 0.7853981633974517207 ) ;
#257 = EDGE_LOOP ( 'NONE', ( #57, #305 ) ) ;
#258 = VERTEX_POINT ( 'NONE', #34 ) ;
#259 = ORIENTED_EDGE ( 'NONE', *, *, #125, .T. ) ;
#260 =( GEOMETRIC_REPRESENTATION_CONTEXT ( 3 ) GLOBAL_UNCERTAINTY_ASSIGNED_CONTEXT ( ( #223 ) ) GLOBAL_UNIT_ASSIGNED_CONTEXT ( ( #301, #159, #28 ) ) REPRESENTATION_CONTEXT ( 'NONE', 'WORKASPACE' ) );
#261 = AXIS2_PLACEMENT_3D ( 'NONE', #277, #297, #55 ) ;
#262 = ORIENTED_EDGE ( 'NONE', *, *, #133, .T. ) ;
#263 = CARTESIAN_POINT ( 'NONE',  ( 43.98290598290599007, 0.0000000000000000000, 0.0000000000000000000 ) ) ;
#264 = CARTESIAN_POINT ( 'NONE',  ( 43.98290598290599007, 0.0000000000000000000, 0.0000000000000000000 ) ) ;
#265 = EDGE_CURVE ( 'NONE', #196, #160, #116, .T. ) ;
#266 = DIRECTION ( 'NONE',  ( -1.000000000000000000, -0.0000000000000000000, -0.0000000000000000000 ) ) ;
#267 = CIRCLE ( 'NONE', #63, 25.00000000000000000 ) ;
#268 = DIRECTION ( 'NONE',  ( 0.7071067811865451302, 0.0000000000000000000, -0.7071067811865500152 ) ) ;
#269 = LINE ( 'NONE', #150, #242 ) ;
#270 = FILL_AREA_STYLE ('',( #82 ) ) ;
#271 = CARTESIAN_POINT ( 'NONE',  ( 43.98290598290599718, 1.592040838891559687E-15, 13.00000000000000533 ) ) ;
#272 = VECTOR ( 'NONE', #100, 1000.000000000000000 ) ;
#273 = DIRECTION ( 'NONE',  ( 1.000000000000000000, 0.0000000000000000000, 0.0000000000000000000 ) ) ;
#274 = DIRECTION ( 'NONE',  ( -1.000000000000000000, -0.0000000000000000000, -0.0000000000000000000 ) ) ;
#275 = CARTESIAN_POINT ( 'NONE',  ( 43.48290598290599718, 0.0000000000000000000, 0.0000000000000000000 ) ) ;
#276 =( NAMED_UNIT ( * ) SI_UNIT ( $, .STERADIAN. ) SOLID_ANGLE_UNIT ( ) );
#277 = CARTESIAN_POINT ( 'NONE',  ( -6.017094017094014369, 0.0000000000000000000, 0.0000000000000000000 ) ) ;
#278 = SURFACE_SIDE_STYLE ('',( #35 ) ) ;
#279 = CONICAL_SURFACE ( 'NONE', #79, 12.50000000000000000, 0.7853981633974517207 ) ;
#280 = CARTESIAN_POINT ( 'NONE',  ( -5.517094017094020586, 1.530808498934191521E-15, -12.50000000000000000 ) ) ;
#281 = EDGE_LOOP ( 'NONE', ( #64, #170 ) ) ;
#282 = ORIENTED_EDGE ( 'NONE', *, *, #22, .F. ) ;
#283 = COLOUR_RGB ( '',0.7921568627450980005, 0.8196078431372548767, 0.9333333333333333481 ) ;
#284 = ORIENTED_EDGE ( 'NONE', *, *, #138, .F. ) ;
#285 = VERTEX_POINT ( 'NONE', #250 ) ;
#286 = ORIENTED_EDGE ( 'NONE', *, *, #184, .F. ) ;
#287 = CLOSED_SHELL ( 'NONE', ( #93, #189, #311, #54, #229, #303, #30, #88, #121, #85 ) ) ;
#288 = DIRECTION ( 'NONE',  ( 0.0000000000000000000, 0.0000000000000000000, 1.000000000000000000 ) ) ;
#289 = FACE_OUTER_BOUND ( 'NONE', #16, .T. ) ;
#290 = LINE ( 'NONE', #243, #212 ) ;
#291 = CARTESIAN_POINT ( 'NONE',  ( 43.98290598290599718, 0.0000000000000000000, -13.00000000000000533 ) ) ;
#292 = AXIS2_PLACEMENT_3D ( 'NONE', #157, #254, #36 ) ;
#293 = EDGE_CURVE ( 'NONE', #166, #196, #158, .T. ) ;
#294 = DIRECTION ( 'NONE',  ( 0.0000000000000000000, 0.0000000000000000000, -1.000000000000000000 ) ) ;
#295 = FILL_AREA_STYLE ('',( #58 ) ) ;
#296 =( NAMED_UNIT ( * ) SI_UNIT ( $, .STERADIAN. ) SOLID_ANGLE_UNIT ( ) );
#297 = DIRECTION ( 'NONE',  ( -1.000000000000000000, -0.0000000000000000000, -0.0000000000000000000 ) ) ;
#298 = AXIS2_PLACEMENT_3D ( 'NONE', #264, #218, #2 ) ;
#299 = AXIS2_PLACEMENT_3D ( 'NONE', #251, #252, #130 ) ;
#300 = FACE_OUTER_BOUND ( 'NONE', #140, .T. ) ;
#301 =( LENGTH_UNIT ( ) NAMED_UNIT ( * ) SI_UNIT ( .MILLI., .METRE. ) );
#302 = CARTESIAN_POINT ( 'NONE',  ( -5.517094017094020586, 0.0000000000000000000, 0.0000000000000000000 ) ) ;
#303 = ADVANCED_FACE ( 'NONE', ( #26 ), #103, .T. ) ;
#304 = ORIENTED_EDGE ( 'NONE', *, *, #98, .T. ) ;
#305 = ORIENTED_EDGE ( 'NONE', *, *, #49, .T. ) ;
#306 = AXIS2_PLACEMENT_3D ( 'NONE', #131, #273, #206 ) ;
#307 = ORIENTED_EDGE ( 'NONE', *, *, #169, .T. ) ;
#308 = EDGE_CURVE ( 'NONE', #258, #231, #127, .T. ) ;
#309 = ORIENTED_EDGE ( 'NONE', *, *, #138, .T. ) ;
#310 = EDGE_LOOP ( 'NONE', ( #284, #92, #193, #118 ) ) ;
#311 = ADVANCED_FACE ( 'NONE', ( #56 ), #224, .F. ) ;
#312 = CIRCLE ( 'NONE', #59, 25.00000000000000000 ) ;
#313 = FACE_OUTER_BOUND ( 'NONE', #246, .T. ) ;
#314 = DIRECTION ( 'NONE',  ( -0.7071067811865451302, 0.0000000000000000000, 0.7071067811865500152 ) ) ;
ENDSEC;
END-ISO-10303-21;
