ISO-10303-21;
HEADER;
FILE_DESCRIPTION (( 'STEP AP214' ),
    '1' );
FILE_NAME ('BRM 24x10.step',
    '2020-09-08T10:23:09',
    ( '' ),
    ( '' ),
    'SwSTEP 2.0',
    'SolidWorks 2020',
    '' );
FILE_SCHEMA (( 'AUTOMOTIVE_DESIGN' ));
ENDSEC;

DATA;
#1 = DIRECTION ( 'NONE',  ( -1.000000000000000000, -0.0000000000000000000, -0.0000000000000000000 ) ) ;
#2 = COLOUR_RGB ( '',0.7921568627450980005, 0.8196078431372548767, 0.9333333333333333481 ) ;
#3 = DIRECTION ( 'NONE',  ( 0.0000000000000000000, 0.0000000000000000000, 1.000000000000000000 ) ) ;
#4 = ADVANCED_FACE ( 'NONE', ( #194 ), #183, .F. ) ;
#5 = DIRECTION ( 'NONE',  ( 0.0000000000000000000, 0.0000000000000000000, 1.000000000000000000 ) ) ;
#6 = DIRECTION ( 'NONE',  ( 0.0000000000000000000, 0.0000000000000000000, 1.000000000000000000 ) ) ;
#7 = LINE ( 'NONE', #185, #264 ) ;
#8 = CLOSED_SHELL ( 'NONE', ( #27, #4, #252, #311, #307, #202, #218, #288, #15, #158 ) ) ;
#9 = SURFACE_STYLE_USAGE ( .BOTH. , #113 ) ;
#10 = ORIENTED_EDGE ( 'NONE', *, *, #199, .F. ) ;
#11 = CARTESIAN_POINT ( 'NONE',  ( -46.22222222222222143, 0.0000000000000000000, 0.0000000000000000000 ) ) ;
#12 = CONICAL_SURFACE ( 'NONE', #236, 12.00000000000000000, 0.7853981633974587151 ) ;
#13 = VERTEX_POINT ( 'NONE', #308 ) ;
#14 = DIRECTION ( 'NONE',  ( 0.0000000000000000000, 0.0000000000000000000, -1.000000000000000000 ) ) ;
#15 = ADVANCED_FACE ( 'NONE', ( #310 ), #12, .F. ) ;
#16 = EDGE_LOOP ( 'NONE', ( #281, #94, #238, #70 ) ) ;
#17 = ORIENTED_EDGE ( 'NONE', *, *, #134, .T. ) ;
#18 = CIRCLE ( 'NONE', #188, 12.00000000000000000 ) ;
#19 = ORIENTED_EDGE ( 'NONE', *, *, #302, .T. ) ;
#20 = ORIENTED_EDGE ( 'NONE', *, *, #245, .T. ) ;
#21 = PRODUCT_DEFINITION ( 'UNKNOWN', '', #62, #197 ) ;
#22 = LINE ( 'NONE', #171, #100 ) ;
#23 = AXIS2_PLACEMENT_3D ( 'NONE', #147, #152, #198 ) ;
#24 = AXIS2_PLACEMENT_3D ( 'NONE', #254, #58, #6 ) ;
#25 = CARTESIAN_POINT ( 'NONE',  ( -46.22222222222222143, 0.0000000000000000000, 0.0000000000000000000 ) ) ;
#26 = CARTESIAN_POINT ( 'NONE',  ( -5.517094017094013481, 0.0000000000000000000, 0.0000000000000000000 ) ) ;
#27 = ADVANCED_FACE ( 'NONE', ( #261 ), #248, .F. ) ;
#28 = CARTESIAN_POINT ( 'NONE',  ( -5.517094017094013481, 0.0000000000000000000, 12.00000000000000000 ) ) ;
#29 = MECHANICAL_DESIGN_GEOMETRIC_PRESENTATION_REPRESENTATION (  '', ( #124 ), #119 ) ;
#30 = CARTESIAN_POINT ( 'NONE',  ( 41.98290598290599007, 0.0000000000000000000, 0.0000000000000000000 ) ) ;
#31 = UNCERTAINTY_MEASURE_WITH_UNIT (LENGTH_MEASURE( 1.000000000000000082E-05 ), #37, 'distance_accuracy_value', 'NONE');
#32 = PRESENTATION_STYLE_ASSIGNMENT (( #272 ) ) ;
#33 = SURFACE_SIDE_STYLE ('',( #250 ) ) ;
#34 = LINE ( 'NONE', #132, #278 ) ;
#35 = VERTEX_POINT ( 'NONE', #48 ) ;
#36 = DIRECTION ( 'NONE',  ( 1.000000000000000000, 0.0000000000000000000, 0.0000000000000000000 ) ) ;
#37 =( LENGTH_UNIT ( ) NAMED_UNIT ( * ) SI_UNIT ( .MILLI., .METRE. ) );
#38 = VECTOR ( 'NONE', #277, 1000.000000000000000 ) ;
#39 = VERTEX_POINT ( 'NONE', #262 ) ;
#40 = FILL_AREA_STYLE ('',( #154 ) ) ;
#41 = ORIENTED_EDGE ( 'NONE', *, *, #199, .T. ) ;
#42 = STYLED_ITEM ( 'NONE', ( #137 ), #259 ) ;
#43 = CARTESIAN_POINT ( 'NONE',  ( -5.517094017094013481, 0.0000000000000000000, 0.0000000000000000000 ) ) ;
#44 = EDGE_CURVE ( 'NONE', #13, #222, #146, .T. ) ;
#45 = VERTEX_POINT ( 'NONE', #139 ) ;
#46 = DIRECTION ( 'NONE',  ( 0.0000000000000000000, 0.0000000000000000000, -1.000000000000000000 ) ) ;
#47 = CIRCLE ( 'NONE', #23, 12.50000000000001066 ) ;
#48 = CARTESIAN_POINT ( 'NONE',  ( -6.017094017094014369, 1.530808498934192902E-15, -12.50000000000001066 ) ) ;
#49 = UNCERTAINTY_MEASURE_WITH_UNIT (LENGTH_MEASURE( 1.000000000000000082E-05 ), #246, 'distance_accuracy_value', 'NONE');
#50 = PLANE ( 'NONE',  #268 ) ;
#51 = DIRECTION ( 'NONE',  ( -1.000000000000000000, -0.0000000000000000000, -0.0000000000000000000 ) ) ;
#52 = AXIS2_PLACEMENT_3D ( 'NONE', #54, #220, #289 ) ;
#53 = FACE_OUTER_BOUND ( 'NONE', #60, .T. ) ;
#54 = CARTESIAN_POINT ( 'NONE',  ( -6.017094017094014369, 0.0000000000000000000, 0.0000000000000000000 ) ) ;
#55 = LINE ( 'NONE', #314, #251 ) ;
#56 = CIRCLE ( 'NONE', #301, 12.00000000000000000 ) ;
#57 = PRODUCT_CONTEXT ( 'NONE', #291, 'mechanical' ) ;
#58 = DIRECTION ( 'NONE',  ( -1.000000000000000000, -0.0000000000000000000, -0.0000000000000000000 ) ) ;
#59 = DIRECTION ( 'NONE',  ( -0.7071067811865401342, 8.659560562355022838E-17, -0.7071067811865549002 ) ) ;
#60 = EDGE_LOOP ( 'NONE', ( #65, #167 ) ) ;
#61 = DIRECTION ( 'NONE',  ( 1.000000000000000000, 0.0000000000000000000, 0.0000000000000000000 ) ) ;
#62 = PRODUCT_DEFINITION_FORMATION_WITH_SPECIFIED_SOURCE ( 'ANY', '', #81, .NOT_KNOWN. ) ;
#63 = EDGE_CURVE ( 'NONE', #35, #232, #153, .T. ) ;
#64 = CARTESIAN_POINT ( 'NONE',  ( -6.017094017094014369, 12.00000000000000000, 0.0000000000000000000 ) ) ;
#65 = ORIENTED_EDGE ( 'NONE', *, *, #103, .F. ) ;
#66 = CARTESIAN_POINT ( 'NONE',  ( -6.017094017094014369, 0.0000000000000000000, 0.0000000000000000000 ) ) ;
#67 = AXIS2_PLACEMENT_3D ( 'NONE', #66, #140, #14 ) ;
#68 = ORIENTED_EDGE ( 'NONE', *, *, #229, .F. ) ;
#69 = CARTESIAN_POINT ( 'NONE',  ( 41.98290598290599007, 0.0000000000000000000, 0.0000000000000000000 ) ) ;
#70 = ORIENTED_EDGE ( 'NONE', *, *, #189, .F. ) ;
#71 = ORIENTED_EDGE ( 'NONE', *, *, #172, .F. ) ;
#72 = DIRECTION ( 'NONE',  ( -1.000000000000000000, -0.0000000000000000000, -0.0000000000000000000 ) ) ;
#73 = DIRECTION ( 'NONE',  ( 1.000000000000000000, -0.0000000000000000000, -0.0000000000000000000 ) ) ;
#74 = EDGE_CURVE ( 'NONE', #222, #164, #112, .T. ) ;
#75 = COLOUR_RGB ( '',0.7921568627450980005, 0.8196078431372548767, 0.9333333333333333481 ) ;
#76 = DIRECTION ( 'NONE',  ( -1.000000000000000000, 0.0000000000000000000, -0.0000000000000000000 ) ) ;
#77 = DIRECTION ( 'NONE',  ( 0.0000000000000000000, 0.0000000000000000000, 1.000000000000000000 ) ) ;
#78 = EDGE_CURVE ( 'NONE', #142, #39, #279, .T. ) ;
#79 =( NAMED_UNIT ( * ) PLANE_ANGLE_UNIT ( ) SI_UNIT ( $, .RADIAN. ) );
#80 = CARTESIAN_POINT ( 'NONE',  ( -46.22222222222222143, 0.0000000000000000000, 12.00000000000000000 ) ) ;
#81 = PRODUCT ( 'BRM 24x10', 'BRM 24x10', '', ( #57 ) ) ;
#82 = PLANE ( 'NONE',  #135 ) ;
#83 = APPLICATION_PROTOCOL_DEFINITION ( 'draft international standard', 'automotive_design', 1998, #122 ) ;
#84 = EDGE_CURVE ( 'NONE', #232, #35, #47, .T. ) ;
#85 = ORIENTED_EDGE ( 'NONE', *, *, #271, .T. ) ;
#86 = FACE_OUTER_BOUND ( 'NONE', #157, .T. ) ;
#87 = CIRCLE ( 'NONE', #175, 25.00000000000000000 ) ;
#88 = EDGE_CURVE ( 'NONE', #13, #230, #138, .T. ) ;
#89 = ORIENTED_EDGE ( 'NONE', *, *, #44, .T. ) ;
#90 = ORIENTED_EDGE ( 'NONE', *, *, #242, .T. ) ;
#91 = AXIS2_PLACEMENT_3D ( 'NONE', #11, #249, #110 ) ;
#92 = DIRECTION ( 'NONE',  ( -1.000000000000000000, 0.0000000000000000000, 0.0000000000000000000 ) ) ;
#93 = EDGE_CURVE ( 'NONE', #164, #222, #221, .T. ) ;
#94 = ORIENTED_EDGE ( 'NONE', *, *, #155, .T. ) ;
#95 = CARTESIAN_POINT ( 'NONE',  ( 41.98290598290599007, 1.530808498934191719E-15, 12.50000000000000178 ) ) ;
#96 = AXIS2_PLACEMENT_3D ( 'NONE', #196, #73, #5 ) ;
#97 = DIRECTION ( 'NONE',  ( -1.000000000000000000, -0.0000000000000000000, -0.0000000000000000000 ) ) ;
#98 = CARTESIAN_POINT ( 'NONE',  ( -6.017094017094014369, 0.0000000000000000000, 0.0000000000000000000 ) ) ;
#99 = UNCERTAINTY_MEASURE_WITH_UNIT (LENGTH_MEASURE( 1.000000000000000082E-05 ), #292, 'distance_accuracy_value', 'NONE');
#100 = VECTOR ( 'NONE', #51, 1000.000000000000000 ) ;
#101 = FILL_AREA_STYLE ('',( #203 ) ) ;
#102 = CARTESIAN_POINT ( 'NONE',  ( 41.98290598290599007, 0.0000000000000000000, 0.0000000000000000000 ) ) ;
#103 = EDGE_CURVE ( 'NONE', #257, #142, #149, .T. ) ;
#104 = CARTESIAN_POINT ( 'NONE',  ( 0.0000000000000000000, 0.0000000000000000000, 0.0000000000000000000 ) ) ;
#105 = DIRECTION ( 'NONE',  ( 0.0000000000000000000, 0.0000000000000000000, 1.000000000000000000 ) ) ;
#106 =( NAMED_UNIT ( * ) SI_UNIT ( $, .STERADIAN. ) SOLID_ANGLE_UNIT ( ) );
#107 = CONICAL_SURFACE ( 'NONE', #231, 12.50000000000000178, 0.7853981633974500554 ) ;
#108 = SHAPE_DEFINITION_REPRESENTATION ( #297, #286 ) ;
#109 = ORIENTED_EDGE ( 'NONE', *, *, #93, .T. ) ;
#110 = DIRECTION ( 'NONE',  ( 0.0000000000000000000, 0.0000000000000000000, 1.000000000000000000 ) ) ;
#111 = ORIENTED_EDGE ( 'NONE', *, *, #271, .F. ) ;
#112 = CIRCLE ( 'NONE', #129, 12.49999999999999467 ) ;
#113 = SURFACE_SIDE_STYLE ('',( #293 ) ) ;
#114 = EDGE_LOOP ( 'NONE', ( #111, #165, #207, #10 ) ) ;
#115 = ORIENTED_EDGE ( 'NONE', *, *, #143, .T. ) ;
#116 = VERTEX_POINT ( 'NONE', #28 ) ;
#117 = ORIENTED_EDGE ( 'NONE', *, *, #88, .T. ) ;
#118 = AXIS2_PLACEMENT_3D ( 'NONE', #25, #1, #77 ) ;
#119 =( GEOMETRIC_REPRESENTATION_CONTEXT ( 3 ) GLOBAL_UNCERTAINTY_ASSIGNED_CONTEXT ( ( #99 ) ) GLOBAL_UNIT_ASSIGNED_CONTEXT ( ( #292, #179, #270 ) ) REPRESENTATION_CONTEXT ( 'NONE', 'WORKASPACE' ) );
#120 = ORIENTED_EDGE ( 'NONE', *, *, #63, .F. ) ;
#121 = EDGE_LOOP ( 'NONE', ( #133, #309, #41, #120 ) ) ;
#122 = APPLICATION_CONTEXT ( 'automotive_design' ) ;
#123 = DIRECTION ( 'NONE',  ( 1.000000000000000000, -0.0000000000000000000, -0.0000000000000000000 ) ) ;
#124 = STYLED_ITEM ( 'NONE', ( #32 ), #286 ) ;
#125 = CARTESIAN_POINT ( 'NONE',  ( -6.017094017094014369, 0.0000000000000000000, 12.50000000000001066 ) ) ;
#126 = LINE ( 'NONE', #216, #145 ) ;
#127 = FACE_OUTER_BOUND ( 'NONE', #192, .T. ) ;
#128 = AXIS2_PLACEMENT_3D ( 'NONE', #69, #233, #46 ) ;
#129 = AXIS2_PLACEMENT_3D ( 'NONE', #210, #190, #304 ) ;
#130 = DIRECTION ( 'NONE',  ( -1.000000000000000000, -0.0000000000000000000, -0.0000000000000000000 ) ) ;
#131 = DIRECTION ( 'NONE',  ( 0.0000000000000000000, 0.0000000000000000000, 1.000000000000000000 ) ) ;
#132 = CARTESIAN_POINT ( 'NONE',  ( -5.517094017094013481, 1.469576158976823947E-15, -12.00000000000000000 ) ) ;
#133 = ORIENTED_EDGE ( 'NONE', *, *, #295, .F. ) ;
#134 = EDGE_CURVE ( 'NONE', #13, #116, #290, .T. ) ;
#135 = AXIS2_PLACEMENT_3D ( 'NONE', #64, #61, #156 ) ;
#136 =( NAMED_UNIT ( * ) SI_UNIT ( $, .STERADIAN. ) SOLID_ANGLE_UNIT ( ) );
#137 = PRESENTATION_STYLE_ASSIGNMENT (( #9 ) ) ;
#138 = CIRCLE ( 'NONE', #282, 12.00000000000000000 ) ;
#139 = CARTESIAN_POINT ( 'NONE',  ( -5.517094017094013481, 1.469576158976823947E-15, -12.00000000000000000 ) ) ;
#140 = DIRECTION ( 'NONE',  ( 1.000000000000000000, 0.0000000000000000000, 0.0000000000000000000 ) ) ;
#141 = ORIENTED_EDGE ( 'NONE', *, *, #44, .F. ) ;
#142 = VERTEX_POINT ( 'NONE', #243 ) ;
#143 = EDGE_CURVE ( 'NONE', #116, #45, #56, .T. ) ;
#144 = ORIENTED_EDGE ( 'NONE', *, *, #93, .F. ) ;
#145 = VECTOR ( 'NONE', #287, 1000.000000000000000 ) ;
#146 = LINE ( 'NONE', #95, #38 ) ;
#147 = CARTESIAN_POINT ( 'NONE',  ( -6.017094017094014369, 0.0000000000000000000, 0.0000000000000000000 ) ) ;
#148 = DIRECTION ( 'NONE',  ( -1.000000000000000000, 0.0000000000000000000, 0.0000000000000000000 ) ) ;
#149 = CIRCLE ( 'NONE', #212, 25.00000000000000000 ) ;
#150 = CARTESIAN_POINT ( 'NONE',  ( 41.98290598290599007, 0.0000000000000000000, 0.0000000000000000000 ) ) ;
#151 = DIRECTION ( 'NONE',  ( -1.000000000000000000, -0.0000000000000000000, -0.0000000000000000000 ) ) ;
#152 = DIRECTION ( 'NONE',  ( 1.000000000000000000, 0.0000000000000000000, 0.0000000000000000000 ) ) ;
#153 = CIRCLE ( 'NONE', #67, 12.50000000000001066 ) ;
#154 = FILL_AREA_STYLE_COLOUR ( '', #2 ) ;
#155 = EDGE_CURVE ( 'NONE', #142, #257, #294, .T. ) ;
#156 = DIRECTION ( 'NONE',  ( 0.0000000000000000000, 0.0000000000000000000, -1.000000000000000000 ) ) ;
#157 = EDGE_LOOP ( 'NONE', ( #117, #90, #85, #274 ) ) ;
#158 = ADVANCED_FACE ( 'NONE', ( #127 ), #107, .F. ) ;
#159 = CYLINDRICAL_SURFACE ( 'NONE', #24, 25.00000000000000000 ) ;
#160 = EDGE_LOOP ( 'NONE', ( #303, #213, #211, #68 ) ) ;
#161 = AXIS2_PLACEMENT_3D ( 'NONE', #187, #215, #191 ) ;
#162 =( GEOMETRIC_REPRESENTATION_CONTEXT ( 3 ) GLOBAL_UNCERTAINTY_ASSIGNED_CONTEXT ( ( #49 ) ) GLOBAL_UNIT_ASSIGNED_CONTEXT ( ( #246, #79, #136 ) ) REPRESENTATION_CONTEXT ( 'NONE', 'WORKASPACE' ) );
#163 = ORIENTED_EDGE ( 'NONE', *, *, #189, .T. ) ;
#164 = VERTEX_POINT ( 'NONE', #200 ) ;
#165 = ORIENTED_EDGE ( 'NONE', *, *, #295, .T. ) ;
#166 = PRESENTATION_LAYER_ASSIGNMENT (  '', '', ( #42 ) ) ;
#167 = ORIENTED_EDGE ( 'NONE', *, *, #155, .F. ) ;
#168 = EDGE_LOOP ( 'NONE', ( #20, #163 ) ) ;
#169 = DIRECTION ( 'NONE',  ( 1.000000000000000000, -0.0000000000000000000, -0.0000000000000000000 ) ) ;
#170 = DIRECTION ( 'NONE',  ( -1.000000000000000000, -0.0000000000000000000, -0.0000000000000000000 ) ) ;
#171 = CARTESIAN_POINT ( 'NONE',  ( -46.22222222222222143, 0.0000000000000000000, 25.00000000000000000 ) ) ;
#172 = EDGE_CURVE ( 'NONE', #230, #13, #260, .T. ) ;
#173 = DIRECTION ( 'NONE',  ( 0.0000000000000000000, 0.0000000000000000000, 1.000000000000000000 ) ) ;
#174 = DIRECTION ( 'NONE',  ( 0.0000000000000000000, 0.0000000000000000000, -1.000000000000000000 ) ) ;
#175 = AXIS2_PLACEMENT_3D ( 'NONE', #98, #151, #244 ) ;
#176 = AXIS2_PLACEMENT_3D ( 'NONE', #104, #131, #36 ) ;
#177 = PRODUCT_RELATED_PRODUCT_CATEGORY ( 'part', '', ( #81 ) ) ;
#178 = DIRECTION ( 'NONE',  ( 0.0000000000000000000, 0.0000000000000000000, 1.000000000000000000 ) ) ;
#179 =( NAMED_UNIT ( * ) PLANE_ANGLE_UNIT ( ) SI_UNIT ( $, .RADIAN. ) );
#180 = DIRECTION ( 'NONE',  ( -1.000000000000000000, -0.0000000000000000000, -0.0000000000000000000 ) ) ;
#181 = EDGE_LOOP ( 'NONE', ( #299, #256, #17, #115 ) ) ;
#182 = DIRECTION ( 'NONE',  ( -1.000000000000000000, 0.0000000000000000000, 0.0000000000000000000 ) ) ;
#183 = CONICAL_SURFACE ( 'NONE', #161, 12.00000000000000000, 0.7853981633974587151 ) ;
#184 = PRESENTATION_LAYER_ASSIGNMENT (  '', '', ( #124 ) ) ;
#185 = CARTESIAN_POINT ( 'NONE',  ( 41.98290598290599007, 0.0000000000000000000, -12.50000000000000178 ) ) ;
#186 = ORIENTED_EDGE ( 'NONE', *, *, #63, .T. ) ;
#187 = CARTESIAN_POINT ( 'NONE',  ( -5.517094017094013481, 0.0000000000000000000, 0.0000000000000000000 ) ) ;
#188 = AXIS2_PLACEMENT_3D ( 'NONE', #228, #182, #273 ) ;
#189 = EDGE_CURVE ( 'NONE', #39, #214, #305, .T. ) ;
#190 = DIRECTION ( 'NONE',  ( -1.000000000000000000, -0.0000000000000000000, -0.0000000000000000000 ) ) ;
#191 = DIRECTION ( 'NONE',  ( 0.0000000000000000000, 0.0000000000000000000, 1.000000000000000000 ) ) ;
#192 = EDGE_LOOP ( 'NONE', ( #141, #71, #19, #209 ) ) ;
#193 = VECTOR ( 'NONE', #201, 1000.000000000000000 ) ;
#194 = FACE_OUTER_BOUND ( 'NONE', #114, .T. ) ;
#195 = CARTESIAN_POINT ( 'NONE',  ( -6.017094017094014369, 0.0000000000000000000, 25.00000000000000000 ) ) ;
#196 = CARTESIAN_POINT ( 'NONE',  ( 41.48290598290599007, 0.0000000000000000000, 0.0000000000000000000 ) ) ;
#197 = PRODUCT_DEFINITION_CONTEXT ( 'detailed design', #122, 'design' ) ;
#198 = DIRECTION ( 'NONE',  ( 0.0000000000000000000, 0.0000000000000000000, -1.000000000000000000 ) ) ;
#199 = EDGE_CURVE ( 'NONE', #116, #232, #126, .T. ) ;
#200 = CARTESIAN_POINT ( 'NONE',  ( 41.98290598290599007, 0.0000000000000000000, -12.49999999999999467 ) ) ;
#201 = DIRECTION ( 'NONE',  ( -1.000000000000000000, -0.0000000000000000000, -0.0000000000000000000 ) ) ;
#202 = ADVANCED_FACE ( 'NONE', ( #219 ), #265, .T. ) ;
#203 = FILL_AREA_STYLE_COLOUR ( '', #75 ) ;
#204 = CYLINDRICAL_SURFACE ( 'NONE', #226, 12.00000000000000000 ) ;
#205 = ORIENTED_EDGE ( 'NONE', *, *, #302, .F. ) ;
#206 = CARTESIAN_POINT ( 'NONE',  ( -46.22222222222222143, 0.0000000000000000000, 0.0000000000000000000 ) ) ;
#207 = ORIENTED_EDGE ( 'NONE', *, *, #84, .F. ) ;
#208 =( GEOMETRIC_REPRESENTATION_CONTEXT ( 3 ) GLOBAL_UNCERTAINTY_ASSIGNED_CONTEXT ( ( #31 ) ) GLOBAL_UNIT_ASSIGNED_CONTEXT ( ( #37, #224, #106 ) ) REPRESENTATION_CONTEXT ( 'NONE', 'WORKASPACE' ) );
#209 = ORIENTED_EDGE ( 'NONE', *, *, #74, .F. ) ;
#210 = CARTESIAN_POINT ( 'NONE',  ( 41.98290598290599007, 0.0000000000000000000, 0.0000000000000000000 ) ) ;
#211 = ORIENTED_EDGE ( 'NONE', *, *, #245, .F. ) ;
#212 = AXIS2_PLACEMENT_3D ( 'NONE', #150, #170, #173 ) ;
#213 = ORIENTED_EDGE ( 'NONE', *, *, #78, .T. ) ;
#214 = VERTEX_POINT ( 'NONE', #195 ) ;
#215 = DIRECTION ( 'NONE',  ( -1.000000000000000000, 0.0000000000000000000, 0.0000000000000000000 ) ) ;
#216 = CARTESIAN_POINT ( 'NONE',  ( -5.517094017094013481, 0.0000000000000000000, 12.00000000000000000 ) ) ;
#217 = DIRECTION ( 'NONE',  ( 0.0000000000000000000, 0.0000000000000000000, 1.000000000000000000 ) ) ;
#218 = ADVANCED_FACE ( 'NONE', ( #267, #53 ), #50, .F. ) ;
#219 = FACE_OUTER_BOUND ( 'NONE', #16, .T. ) ;
#220 = DIRECTION ( 'NONE',  ( -1.000000000000000000, -0.0000000000000000000, -0.0000000000000000000 ) ) ;
#221 = CIRCLE ( 'NONE', #312, 12.49999999999999467 ) ;
#222 = VERTEX_POINT ( 'NONE', #263 ) ;
#223 = CARTESIAN_POINT ( 'NONE',  ( 41.98290598290599007, 0.0000000000000000000, 0.0000000000000000000 ) ) ;
#224 =( NAMED_UNIT ( * ) PLANE_ANGLE_UNIT ( ) SI_UNIT ( $, .RADIAN. ) );
#225 = FACE_OUTER_BOUND ( 'NONE', #181, .T. ) ;
#226 = AXIS2_PLACEMENT_3D ( 'NONE', #206, #180, #178 ) ;
#227 = APPLICATION_PROTOCOL_DEFINITION ( 'draft international standard', 'automotive_design', 1998, #291 ) ;
#228 = CARTESIAN_POINT ( 'NONE',  ( -5.517094017094013481, 0.0000000000000000000, 0.0000000000000000000 ) ) ;
#229 = EDGE_CURVE ( 'NONE', #257, #214, #22, .T. ) ;
#230 = VERTEX_POINT ( 'NONE', #241 ) ;
#231 = AXIS2_PLACEMENT_3D ( 'NONE', #223, #169, #174 ) ;
#232 = VERTEX_POINT ( 'NONE', #125 ) ;
#233 = DIRECTION ( 'NONE',  ( 1.000000000000000000, -0.0000000000000000000, -0.0000000000000000000 ) ) ;
#234 = ORIENTED_EDGE ( 'NONE', *, *, #74, .T. ) ;
#235 = EDGE_LOOP ( 'NONE', ( #109, #234 ) ) ;
#236 = AXIS2_PLACEMENT_3D ( 'NONE', #43, #92, #283 ) ;
#237 = EDGE_LOOP ( 'NONE', ( #280, #186 ) ) ;
#238 = ORIENTED_EDGE ( 'NONE', *, *, #229, .T. ) ;
#239 = CARTESIAN_POINT ( 'NONE',  ( 41.98290598290599007, 25.00000000000000000, 0.0000000000000000000 ) ) ;
#240 = MECHANICAL_DESIGN_GEOMETRIC_PRESENTATION_REPRESENTATION (  '', ( #42 ), #208 ) ;
#241 = CARTESIAN_POINT ( 'NONE',  ( 41.48290598290599007, 1.469576158976823947E-15, -12.00000000000000000 ) ) ;
#242 = EDGE_CURVE ( 'NONE', #230, #45, #55, .T. ) ;
#243 = CARTESIAN_POINT ( 'NONE',  ( 41.98290598290599007, 3.061616997868383043E-15, -25.00000000000000000 ) ) ;
#244 = DIRECTION ( 'NONE',  ( 0.0000000000000000000, 0.0000000000000000000, 1.000000000000000000 ) ) ;
#245 = EDGE_CURVE ( 'NONE', #214, #39, #87, .T. ) ;
#246 =( LENGTH_UNIT ( ) NAMED_UNIT ( * ) SI_UNIT ( .MILLI., .METRE. ) );
#247 = CARTESIAN_POINT ( 'NONE',  ( 41.48290598290599007, 0.0000000000000000000, 0.0000000000000000000 ) ) ;
#248 = CONICAL_SURFACE ( 'NONE', #128, 12.50000000000000178, 0.7853981633974500554 ) ;
#249 = DIRECTION ( 'NONE',  ( -1.000000000000000000, -0.0000000000000000000, -0.0000000000000000000 ) ) ;
#250 = SURFACE_STYLE_FILL_AREA ( #101 ) ;
#251 = VECTOR ( 'NONE', #266, 1000.000000000000000 ) ;
#252 = ADVANCED_FACE ( 'NONE', ( #86 ), #204, .F. ) ;
#253 = FACE_OUTER_BOUND ( 'NONE', #160, .T. ) ;
#254 = CARTESIAN_POINT ( 'NONE',  ( -46.22222222222222143, 0.0000000000000000000, 0.0000000000000000000 ) ) ;
#255 = AXIS2_PLACEMENT_3D ( 'NONE', #102, #97, #217 ) ;
#256 = ORIENTED_EDGE ( 'NONE', *, *, #172, .T. ) ;
#257 = VERTEX_POINT ( 'NONE', #298 ) ;
#258 = ORIENTED_EDGE ( 'NONE', *, *, #88, .F. ) ;
#259 = MANIFOLD_SOLID_BREP ( 'Chamfer1', #8 ) ;
#260 = CIRCLE ( 'NONE', #96, 12.00000000000000000 ) ;
#261 = FACE_OUTER_BOUND ( 'NONE', #306, .T. ) ;
#262 = CARTESIAN_POINT ( 'NONE',  ( -6.017094017094014369, 3.061616997868383043E-15, -25.00000000000000000 ) ) ;
#263 = CARTESIAN_POINT ( 'NONE',  ( 41.98290598290599007, 1.530808498934190930E-15, 12.49999999999999467 ) ) ;
#264 = VECTOR ( 'NONE', #300, 1000.000000000000000 ) ;
#265 = CYLINDRICAL_SURFACE ( 'NONE', #118, 25.00000000000000000 ) ;
#266 = DIRECTION ( 'NONE',  ( -1.000000000000000000, -0.0000000000000000000, -0.0000000000000000000 ) ) ;
#267 = FACE_BOUND ( 'NONE', #235, .T. ) ;
#268 = AXIS2_PLACEMENT_3D ( 'NONE', #239, #76, #284 ) ;
#269 = CYLINDRICAL_SURFACE ( 'NONE', #91, 12.00000000000000000 ) ;
#270 =( NAMED_UNIT ( * ) SI_UNIT ( $, .STERADIAN. ) SOLID_ANGLE_UNIT ( ) );
#271 = EDGE_CURVE ( 'NONE', #45, #116, #18, .T. ) ;
#272 = SURFACE_STYLE_USAGE ( .BOTH. , #33 ) ;
#273 = DIRECTION ( 'NONE',  ( 0.0000000000000000000, 0.0000000000000000000, -1.000000000000000000 ) ) ;
#274 = ORIENTED_EDGE ( 'NONE', *, *, #134, .F. ) ;
#275 = VECTOR ( 'NONE', #72, 1000.000000000000000 ) ;
#276 = FACE_OUTER_BOUND ( 'NONE', #168, .T. ) ;
#277 = DIRECTION ( 'NONE',  ( 0.7071067811865463515, 8.659560562354948882E-17, 0.7071067811865487940 ) ) ;
#278 = VECTOR ( 'NONE', #59, 1000.000000000000000 ) ;
#279 = LINE ( 'NONE', #313, #193 ) ;
#280 = ORIENTED_EDGE ( 'NONE', *, *, #84, .T. ) ;
#281 = ORIENTED_EDGE ( 'NONE', *, *, #78, .F. ) ;
#282 = AXIS2_PLACEMENT_3D ( 'NONE', #247, #123, #3 ) ;
#283 = DIRECTION ( 'NONE',  ( 0.0000000000000000000, 0.0000000000000000000, 1.000000000000000000 ) ) ;
#284 = DIRECTION ( 'NONE',  ( -0.0000000000000000000, 0.0000000000000000000, 1.000000000000000000 ) ) ;
#285 = DIRECTION ( 'NONE',  ( 0.0000000000000000000, 0.0000000000000000000, -1.000000000000000000 ) ) ;
#286 = ADVANCED_BREP_SHAPE_REPRESENTATION ( 'BRM 24x10', ( #259, #176 ), #162 ) ;
#287 = DIRECTION ( 'NONE',  ( -0.7071067811865401342, 0.0000000000000000000, 0.7071067811865549002 ) ) ;
#288 = ADVANCED_FACE ( 'NONE', ( #225 ), #269, .F. ) ;
#289 = DIRECTION ( 'NONE',  ( 0.0000000000000000000, 0.0000000000000000000, 1.000000000000000000 ) ) ;
#290 = LINE ( 'NONE', #80, #275 ) ;
#291 = APPLICATION_CONTEXT ( 'automotive_design' ) ;
#292 =( LENGTH_UNIT ( ) NAMED_UNIT ( * ) SI_UNIT ( .MILLI., .METRE. ) );
#293 = SURFACE_STYLE_FILL_AREA ( #40 ) ;
#294 = CIRCLE ( 'NONE', #255, 25.00000000000000000 ) ;
#295 = EDGE_CURVE ( 'NONE', #45, #35, #34, .T. ) ;
#296 = FACE_BOUND ( 'NONE', #237, .T. ) ;
#297 = PRODUCT_DEFINITION_SHAPE ( 'NONE', 'NONE',  #21 ) ;
#298 = CARTESIAN_POINT ( 'NONE',  ( 41.98290598290599007, 0.0000000000000000000, 25.00000000000000000 ) ) ;
#299 = ORIENTED_EDGE ( 'NONE', *, *, #242, .F. ) ;
#300 = DIRECTION ( 'NONE',  ( 0.7071067811865463515, 0.0000000000000000000, -0.7071067811865487940 ) ) ;
#301 = AXIS2_PLACEMENT_3D ( 'NONE', #26, #148, #285 ) ;
#302 = EDGE_CURVE ( 'NONE', #230, #164, #7, .T. ) ;
#303 = ORIENTED_EDGE ( 'NONE', *, *, #103, .T. ) ;
#304 = DIRECTION ( 'NONE',  ( 0.0000000000000000000, 0.0000000000000000000, 1.000000000000000000 ) ) ;
#305 = CIRCLE ( 'NONE', #52, 25.00000000000000000 ) ;
#306 = EDGE_LOOP ( 'NONE', ( #258, #89, #144, #205 ) ) ;
#307 = ADVANCED_FACE ( 'NONE', ( #296, #276 ), #82, .F. ) ;
#308 = CARTESIAN_POINT ( 'NONE',  ( 41.48290598290599007, 0.0000000000000000000, 12.00000000000000000 ) ) ;
#309 = ORIENTED_EDGE ( 'NONE', *, *, #143, .F. ) ;
#310 = FACE_OUTER_BOUND ( 'NONE', #121, .T. ) ;
#311 = ADVANCED_FACE ( 'NONE', ( #253 ), #159, .T. ) ;
#312 = AXIS2_PLACEMENT_3D ( 'NONE', #30, #130, #105 ) ;
#313 = CARTESIAN_POINT ( 'NONE',  ( -46.22222222222222143, 3.061616997868383043E-15, -25.00000000000000000 ) ) ;
#314 = CARTESIAN_POINT ( 'NONE',  ( -46.22222222222222143, 1.469576158976823947E-15, -12.00000000000000000 ) ) ;
ENDSEC;
END-ISO-10303-21;
