ISO-10303-21;
HEADER;
FILE_DESCRIPTION (( 'STEP AP214' ),
    '1' );
FILE_NAME ('BRM 26x5.step',
    '2020-09-08T10:23:22',
    ( '' ),
    ( '' ),
    'SwSTEP 2.0',
    'SolidWorks 2020',
    '' );
FILE_SCHEMA (( 'AUTOMOTIVE_DESIGN' ));
ENDSEC;

DATA;
#1 = PRESENTATION_LAYER_ASSIGNMENT (  '', '', ( #217 ) ) ;
#2 = ORIENTED_EDGE ( 'NONE', *, *, #309, .F. ) ;
#3 = UNCERTAINTY_MEASURE_WITH_UNIT (LENGTH_MEASURE( 1.000000000000000082E-05 ), #205, 'distance_accuracy_value', 'NONE');
#4 = ORIENTED_EDGE ( 'NONE', *, *, #236, .F. ) ;
#5 = DIRECTION ( 'NONE',  ( 0.0000000000000000000, 0.0000000000000000000, 1.000000000000000000 ) ) ;
#6 = AXIS2_PLACEMENT_3D ( 'NONE', #35, #249, #180 ) ;
#7 = CARTESIAN_POINT ( 'NONE',  ( 45.98290598290598297, 0.0000000000000000000, 0.0000000000000000000 ) ) ;
#8 = EDGE_CURVE ( 'NONE', #263, #73, #148, .T. ) ;
#9 = DIRECTION ( 'NONE',  ( -1.000000000000000000, 0.0000000000000000000, 0.0000000000000000000 ) ) ;
#10 = APPLICATION_PROTOCOL_DEFINITION ( 'draft international standard', 'automotive_design', 1998, #121 ) ;
#11 = DIRECTION ( 'NONE',  ( 0.0000000000000000000, 0.0000000000000000000, -1.000000000000000000 ) ) ;
#12 = SURFACE_STYLE_USAGE ( .BOTH. , #17 ) ;
#13 = PRODUCT_RELATED_PRODUCT_CATEGORY ( 'part', '', ( #80 ) ) ;
#14 = DIRECTION ( 'NONE',  ( -1.000000000000000000, -0.0000000000000000000, -0.0000000000000000000 ) ) ;
#15 = CARTESIAN_POINT ( 'NONE',  ( 45.98290598290598297, 0.0000000000000000000, -13.50000000000001243 ) ) ;
#16 = VERTEX_POINT ( 'NONE', #194 ) ;
#17 = SURFACE_SIDE_STYLE ('',( #159 ) ) ;
#18 = DIRECTION ( 'NONE',  ( 0.0000000000000000000, 0.0000000000000000000, 1.000000000000000000 ) ) ;
#19 = LINE ( 'NONE', #211, #93 ) ;
#20 = CONICAL_SURFACE ( 'NONE', #258, 13.50000000000001243, 0.7853981633974466137 ) ;
#21 = CARTESIAN_POINT ( 'NONE',  ( -46.22222222222222143, 3.061616997868383043E-15, -25.00000000000000000 ) ) ;
#22 = SURFACE_SIDE_STYLE ('',( #237 ) ) ;
#23 = VERTEX_POINT ( 'NONE', #293 ) ;
#24 = ORIENTED_EDGE ( 'NONE', *, *, #208, .F. ) ;
#25 = ORIENTED_EDGE ( 'NONE', *, *, #48, .T. ) ;
#26 = ORIENTED_EDGE ( 'NONE', *, *, #185, .F. ) ;
#27 = EDGE_LOOP ( 'NONE', ( #78, #25, #260, #255 ) ) ;
#28 = DIRECTION ( 'NONE',  ( 0.0000000000000000000, 0.0000000000000000000, 1.000000000000000000 ) ) ;
#29 = AXIS2_PLACEMENT_3D ( 'NONE', #81, #270, #56 ) ;
#30 = UNCERTAINTY_MEASURE_WITH_UNIT (LENGTH_MEASURE( 1.000000000000000082E-05 ), #201, 'distance_accuracy_value', 'NONE');
#31 = CARTESIAN_POINT ( 'NONE',  ( -5.517094017093993052, 0.0000000000000000000, 13.00000000000000000 ) ) ;
#32 = CARTESIAN_POINT ( 'NONE',  ( -46.22222222222222143, 0.0000000000000000000, 0.0000000000000000000 ) ) ;
#33 = PRODUCT_DEFINITION ( 'UNKNOWN', '', #254, #168 ) ;
#34 =( NAMED_UNIT ( * ) PLANE_ANGLE_UNIT ( ) SI_UNIT ( $, .RADIAN. ) );
#35 = CARTESIAN_POINT ( 'NONE',  ( 45.98290598290598297, 25.00000000000000000, 0.0000000000000000000 ) ) ;
#36 = AXIS2_PLACEMENT_3D ( 'NONE', #198, #9, #110 ) ;
#37 = CARTESIAN_POINT ( 'NONE',  ( 45.98290598290598297, 0.0000000000000000000, -13.50000000000001243 ) ) ;
#38 = AXIS2_PLACEMENT_3D ( 'NONE', #7, #109, #44 ) ;
#39 = CONICAL_SURFACE ( 'NONE', #275, 13.00000000000000000, 0.7853981633974604915 ) ;
#40 = ORIENTED_EDGE ( 'NONE', *, *, #236, .T. ) ;
#41 = DIRECTION ( 'NONE',  ( 0.0000000000000000000, 0.0000000000000000000, 1.000000000000000000 ) ) ;
#42 = DIRECTION ( 'NONE',  ( -1.000000000000000000, -0.0000000000000000000, -0.0000000000000000000 ) ) ;
#43 = ADVANCED_FACE ( 'NONE', ( #76 ), #172, .T. ) ;
#44 = DIRECTION ( 'NONE',  ( 0.0000000000000000000, 0.0000000000000000000, 1.000000000000000000 ) ) ;
#45 = SURFACE_STYLE_USAGE ( .BOTH. , #22 ) ;
#46 = AXIS2_PLACEMENT_3D ( 'NONE', #278, #276, #115 ) ;
#47 = PRESENTATION_STYLE_ASSIGNMENT (( #45 ) ) ;
#48 = EDGE_CURVE ( 'NONE', #303, #263, #91, .T. ) ;
#49 = ORIENTED_EDGE ( 'NONE', *, *, #111, .F. ) ;
#50 = VECTOR ( 'NONE', #51, 1000.000000000000000 ) ;
#51 = DIRECTION ( 'NONE',  ( -1.000000000000000000, -0.0000000000000000000, -0.0000000000000000000 ) ) ;
#52 = ADVANCED_FACE ( 'NONE', ( #300, #82 ), #271, .F. ) ;
#53 = VERTEX_POINT ( 'NONE', #112 ) ;
#54 = EDGE_LOOP ( 'NONE', ( #191, #128 ) ) ;
#55 = EDGE_LOOP ( 'NONE', ( #151, #107, #219, #192 ) ) ;
#56 = DIRECTION ( 'NONE',  ( 0.0000000000000000000, 0.0000000000000000000, 1.000000000000000000 ) ) ;
#57 = DIRECTION ( 'NONE',  ( 1.000000000000000000, -0.0000000000000000000, -0.0000000000000000000 ) ) ;
#58 = CIRCLE ( 'NONE', #46, 13.50000000000003197 ) ;
#59 = CARTESIAN_POINT ( 'NONE',  ( -6.017094017094014369, 13.00000000000000000, 0.0000000000000000000 ) ) ;
#60 = FACE_OUTER_BOUND ( 'NONE', #54, .T. ) ;
#61 = PRODUCT_DEFINITION_SHAPE ( 'NONE', 'NONE',  #33 ) ;
#62 = DIRECTION ( 'NONE',  ( 0.0000000000000000000, 0.0000000000000000000, 1.000000000000000000 ) ) ;
#63 = CARTESIAN_POINT ( 'NONE',  ( 0.0000000000000000000, 0.0000000000000000000, 0.0000000000000000000 ) ) ;
#64 = AXIS2_PLACEMENT_3D ( 'NONE', #264, #77, #150 ) ;
#65 = FACE_OUTER_BOUND ( 'NONE', #127, .T. ) ;
#66 = CIRCLE ( 'NONE', #145, 13.50000000000001243 ) ;
#67 = EDGE_CURVE ( 'NONE', #88, #242, #283, .T. ) ;
#68 = CARTESIAN_POINT ( 'NONE',  ( -5.517094017093993052, 0.0000000000000000000, 0.0000000000000000000 ) ) ;
#69 = DIRECTION ( 'NONE',  ( 1.000000000000000000, -0.0000000000000000000, -0.0000000000000000000 ) ) ;
#70 = DIRECTION ( 'NONE',  ( -1.000000000000000000, -0.0000000000000000000, -0.0000000000000000000 ) ) ;
#71 = COLOUR_RGB ( '',0.7921568627450980005, 0.8196078431372548767, 0.9333333333333333481 ) ;
#72 = CARTESIAN_POINT ( 'NONE',  ( -5.517094017093993052, 1.592040838891559095E-15, -13.00000000000000000 ) ) ;
#73 = VERTEX_POINT ( 'NONE', #297 ) ;
#74 = EDGE_LOOP ( 'NONE', ( #222, #313, #284, #212 ) ) ;
#75 = AXIS2_PLACEMENT_3D ( 'NONE', #32, #247, #251 ) ;
#76 = FACE_OUTER_BOUND ( 'NONE', #55, .T. ) ;
#77 = DIRECTION ( 'NONE',  ( -1.000000000000000000, -0.0000000000000000000, -0.0000000000000000000 ) ) ;
#78 = ORIENTED_EDGE ( 'NONE', *, *, #220, .F. ) ;
#79 = CONICAL_SURFACE ( 'NONE', #103, 13.50000000000001243, 0.7853981633974466137 ) ;
#80 = PRODUCT ( 'BRM 26x5', 'BRM 26x5', '', ( #233 ) ) ;
#81 = CARTESIAN_POINT ( 'NONE',  ( -6.017094017094014369, 0.0000000000000000000, 0.0000000000000000000 ) ) ;
#82 = FACE_OUTER_BOUND ( 'NONE', #147, .T. ) ;
#83 =( NAMED_UNIT ( * ) SI_UNIT ( $, .STERADIAN. ) SOLID_ANGLE_UNIT ( ) );
#84 = CARTESIAN_POINT ( 'NONE',  ( 45.48290598290596876, 0.0000000000000000000, 13.00000000000000000 ) ) ;
#85 = MECHANICAL_DESIGN_GEOMETRIC_PRESENTATION_REPRESENTATION (  '', ( #184 ), #216 ) ;
#86 = CARTESIAN_POINT ( 'NONE',  ( -5.517094017093993052, 0.0000000000000000000, 0.0000000000000000000 ) ) ;
#87 = FACE_OUTER_BOUND ( 'NONE', #74, .T. ) ;
#88 = VERTEX_POINT ( 'NONE', #84 ) ;
#89 = SHAPE_DEFINITION_REPRESENTATION ( #61, #209 ) ;
#90 = LINE ( 'NONE', #182, #139 ) ;
#91 = CIRCLE ( 'NONE', #215, 25.00000000000000000 ) ;
#92 = DIRECTION ( 'NONE',  ( 0.0000000000000000000, 0.0000000000000000000, -1.000000000000000000 ) ) ;
#93 = VECTOR ( 'NONE', #250, 1000.000000000000000 ) ;
#94 = DIRECTION ( 'NONE',  ( 0.0000000000000000000, 0.0000000000000000000, 1.000000000000000000 ) ) ;
#95 = ORIENTED_EDGE ( 'NONE', *, *, #111, .T. ) ;
#96 = ADVANCED_FACE ( 'NONE', ( #160, #60 ), #226, .F. ) ;
#97 = CARTESIAN_POINT ( 'NONE',  ( 45.98290598290598297, 0.0000000000000000000, 25.00000000000000000 ) ) ;
#98 = PRESENTATION_LAYER_ASSIGNMENT (  '', '', ( #184 ) ) ;
#99 = ORIENTED_EDGE ( 'NONE', *, *, #208, .T. ) ;
#100 = ORIENTED_EDGE ( 'NONE', *, *, #272, .F. ) ;
#101 = EDGE_CURVE ( 'NONE', #242, #207, #176, .T. ) ;
#102 = VERTEX_POINT ( 'NONE', #31 ) ;
#103 = AXIS2_PLACEMENT_3D ( 'NONE', #136, #132, #11 ) ;
#104 = UNCERTAINTY_MEASURE_WITH_UNIT (LENGTH_MEASURE( 1.000000000000000082E-05 ), #122, 'distance_accuracy_value', 'NONE');
#105 = VERTEX_POINT ( 'NONE', #299 ) ;
#106 = ADVANCED_FACE ( 'NONE', ( #199 ), #154, .F. ) ;
#107 = ORIENTED_EDGE ( 'NONE', *, *, #220, .T. ) ;
#108 = LINE ( 'NONE', #228, #138 ) ;
#109 = DIRECTION ( 'NONE',  ( -1.000000000000000000, -0.0000000000000000000, -0.0000000000000000000 ) ) ;
#110 = DIRECTION ( 'NONE',  ( 0.0000000000000000000, 0.0000000000000000000, -1.000000000000000000 ) ) ;
#111 = EDGE_CURVE ( 'NONE', #16, #23, #193, .T. ) ;
#112 = CARTESIAN_POINT ( 'NONE',  ( -6.017094017094014369, 3.061616997868383043E-15, -25.00000000000000000 ) ) ;
#113 =( NAMED_UNIT ( * ) PLANE_ANGLE_UNIT ( ) SI_UNIT ( $, .RADIAN. ) );
#114 = CARTESIAN_POINT ( 'NONE',  ( -6.017094017094014369, 0.0000000000000000000, 0.0000000000000000000 ) ) ;
#115 = DIRECTION ( 'NONE',  ( 0.0000000000000000000, 0.0000000000000000000, -1.000000000000000000 ) ) ;
#116 = DIRECTION ( 'NONE',  ( -1.000000000000000000, 0.0000000000000000000, 0.0000000000000000000 ) ) ;
#117 = APPLICATION_PROTOCOL_DEFINITION ( 'draft international standard', 'automotive_design', 1998, #266 ) ;
#118 = DIRECTION ( 'NONE',  ( -1.000000000000000000, 0.0000000000000000000, 0.0000000000000000000 ) ) ;
#119 = AXIS2_PLACEMENT_3D ( 'NONE', #181, #279, #28 ) ;
#120 = CARTESIAN_POINT ( 'NONE',  ( 45.48290598290596876, 0.0000000000000000000, 0.0000000000000000000 ) ) ;
#121 = APPLICATION_CONTEXT ( 'automotive_design' ) ;
#122 =( LENGTH_UNIT ( ) NAMED_UNIT ( * ) SI_UNIT ( .MILLI., .METRE. ) );
#123 = CARTESIAN_POINT ( 'NONE',  ( 45.48290598290596876, 1.592040838891559095E-15, -13.00000000000000000 ) ) ;
#124 = VECTOR ( 'NONE', #286, 1000.000000000000000 ) ;
#125 = EDGE_CURVE ( 'NONE', #88, #105, #108, .T. ) ;
#126 = EDGE_LOOP ( 'NONE', ( #308, #245, #244, #281 ) ) ;
#127 = EDGE_LOOP ( 'NONE', ( #314, #218, #49, #24 ) ) ;
#128 = ORIENTED_EDGE ( 'NONE', *, *, #146, .T. ) ;
#129 = CIRCLE ( 'NONE', #162, 13.00000000000000000 ) ;
#130 = ORIENTED_EDGE ( 'NONE', *, *, #312, .T. ) ;
#131 = DIRECTION ( 'NONE',  ( 0.0000000000000000000, 0.0000000000000000000, 1.000000000000000000 ) ) ;
#132 = DIRECTION ( 'NONE',  ( 1.000000000000000000, -0.0000000000000000000, -0.0000000000000000000 ) ) ;
#133 = AXIS2_PLACEMENT_3D ( 'NONE', #114, #231, #204 ) ;
#134 = DIRECTION ( 'NONE',  ( -1.000000000000000000, -0.0000000000000000000, -0.0000000000000000000 ) ) ;
#135 = EDGE_CURVE ( 'NONE', #207, #102, #311, .T. ) ;
#136 = CARTESIAN_POINT ( 'NONE',  ( 45.98290598290598297, 0.0000000000000000000, 0.0000000000000000000 ) ) ;
#137 = FILL_AREA_STYLE ('',( #156 ) ) ;
#138 = VECTOR ( 'NONE', #277, 1000.000000000000000 ) ;
#139 = VECTOR ( 'NONE', #282, 1000.000000000000000 ) ;
#140 = DIRECTION ( 'NONE',  ( 0.0000000000000000000, 0.0000000000000000000, 1.000000000000000000 ) ) ;
#141 = DIRECTION ( 'NONE',  ( 0.0000000000000000000, 0.0000000000000000000, 1.000000000000000000 ) ) ;
#142 = DIRECTION ( 'NONE',  ( -1.000000000000000000, -0.0000000000000000000, -0.0000000000000000000 ) ) ;
#143 = CONICAL_SURFACE ( 'NONE', #232, 13.00000000000000000, 0.7853981633974604915 ) ;
#144 = DIRECTION ( 'NONE',  ( 1.000000000000000000, -0.0000000000000000000, -0.0000000000000000000 ) ) ;
#145 = AXIS2_PLACEMENT_3D ( 'NONE', #240, #142, #18 ) ;
#146 = EDGE_CURVE ( 'NONE', #53, #73, #305, .T. ) ;
#147 = EDGE_LOOP ( 'NONE', ( #100, #294 ) ) ;
#148 = LINE ( 'NONE', #170, #50 ) ;
#149 = ORIENTED_EDGE ( 'NONE', *, *, #312, .F. ) ;
#150 = DIRECTION ( 'NONE',  ( 0.0000000000000000000, 0.0000000000000000000, 1.000000000000000000 ) ) ;
#151 = ORIENTED_EDGE ( 'NONE', *, *, #272, .T. ) ;
#152 = DIRECTION ( 'NONE',  ( 0.0000000000000000000, 0.0000000000000000000, 1.000000000000000000 ) ) ;
#153 = ADVANCED_FACE ( 'NONE', ( #177 ), #143, .F. ) ;
#154 = CYLINDRICAL_SURFACE ( 'NONE', #267, 13.00000000000000000 ) ;
#155 = CYLINDRICAL_SURFACE ( 'NONE', #75, 13.00000000000000000 ) ;
#156 = FILL_AREA_STYLE_COLOUR ( '', #71 ) ;
#157 = DIRECTION ( 'NONE',  ( -1.000000000000000000, 0.0000000000000000000, 0.0000000000000000000 ) ) ;
#158 = ADVANCED_FACE ( 'NONE', ( #273 ), #155, .F. ) ;
#159 = SURFACE_STYLE_FILL_AREA ( #137 ) ;
#160 = FACE_BOUND ( 'NONE', #169, .T. ) ;
#161 =( NAMED_UNIT ( * ) SI_UNIT ( $, .STERADIAN. ) SOLID_ANGLE_UNIT ( ) );
#162 = AXIS2_PLACEMENT_3D ( 'NONE', #68, #116, #206 ) ;
#163 =( NAMED_UNIT ( * ) PLANE_ANGLE_UNIT ( ) SI_UNIT ( $, .RADIAN. ) );
#164 = LINE ( 'NONE', #21, #202 ) ;
#165 = ADVANCED_FACE ( 'NONE', ( #87 ), #79, .F. ) ;
#166 = FILL_AREA_STYLE ('',( #259 ) ) ;
#167 = LINE ( 'NONE', #307, #124 ) ;
#168 = PRODUCT_DEFINITION_CONTEXT ( 'detailed design', #121, 'design' ) ;
#169 = EDGE_LOOP ( 'NONE', ( #95, #130 ) ) ;
#170 = CARTESIAN_POINT ( 'NONE',  ( -46.22222222222222143, 0.0000000000000000000, 25.00000000000000000 ) ) ;
#171 = AXIS2_PLACEMENT_3D ( 'NONE', #188, #70, #285 ) ;
#172 = CYLINDRICAL_SURFACE ( 'NONE', #64, 25.00000000000000000 ) ;
#173 = CARTESIAN_POINT ( 'NONE',  ( 45.98290598290598297, 0.0000000000000000000, 0.0000000000000000000 ) ) ;
#174 = ORIENTED_EDGE ( 'NONE', *, *, #291, .T. ) ;
#175 = CIRCLE ( 'NONE', #119, 25.00000000000000000 ) ;
#176 = LINE ( 'NONE', #248, #239 ) ;
#177 = FACE_OUTER_BOUND ( 'NONE', #223, .T. ) ;
#178 =( GEOMETRIC_REPRESENTATION_CONTEXT ( 3 ) GLOBAL_UNCERTAINTY_ASSIGNED_CONTEXT ( ( #3 ) ) GLOBAL_UNIT_ASSIGNED_CONTEXT ( ( #205, #113, #161 ) ) REPRESENTATION_CONTEXT ( 'NONE', 'WORKASPACE' ) );
#179 = EDGE_CURVE ( 'NONE', #73, #53, #175, .T. ) ;
#180 = DIRECTION ( 'NONE',  ( -0.0000000000000000000, 0.0000000000000000000, 1.000000000000000000 ) ) ;
#181 = CARTESIAN_POINT ( 'NONE',  ( -6.017094017094014369, 0.0000000000000000000, 0.0000000000000000000 ) ) ;
#182 = CARTESIAN_POINT ( 'NONE',  ( -46.22222222222222143, 0.0000000000000000000, 13.00000000000000000 ) ) ;
#183 = AXIS2_PLACEMENT_3D ( 'NONE', #253, #57, #131 ) ;
#184 = STYLED_ITEM ( 'NONE', ( #47 ), #241 ) ;
#185 = EDGE_CURVE ( 'NONE', #187, #105, #221, .T. ) ;
#186 = FACE_OUTER_BOUND ( 'NONE', #265, .T. ) ;
#187 = VERTEX_POINT ( 'NONE', #15 ) ;
#188 = CARTESIAN_POINT ( 'NONE',  ( 45.98290598290598297, 0.0000000000000000000, 0.0000000000000000000 ) ) ;
#189 = CLOSED_SHELL ( 'NONE', ( #230, #298, #158, #43, #96, #287, #52, #106, #153, #165 ) ) ;
#190 = CARTESIAN_POINT ( 'NONE',  ( -46.22222222222222143, 0.0000000000000000000, 0.0000000000000000000 ) ) ;
#191 = ORIENTED_EDGE ( 'NONE', *, *, #179, .T. ) ;
#192 = ORIENTED_EDGE ( 'NONE', *, *, #8, .F. ) ;
#193 = CIRCLE ( 'NONE', #133, 13.50000000000003197 ) ;
#194 = CARTESIAN_POINT ( 'NONE',  ( -6.017094017094014369, 0.0000000000000000000, 13.50000000000003197 ) ) ;
#195 = AXIS2_PLACEMENT_3D ( 'NONE', #190, #289, #140 ) ;
#196 = ORIENTED_EDGE ( 'NONE', *, *, #101, .F. ) ;
#197 = ORIENTED_EDGE ( 'NONE', *, *, #224, .T. ) ;
#198 = CARTESIAN_POINT ( 'NONE',  ( -5.517094017093993052, 0.0000000000000000000, 0.0000000000000000000 ) ) ;
#199 = FACE_OUTER_BOUND ( 'NONE', #234, .T. ) ;
#200 = DIRECTION ( 'NONE',  ( 0.0000000000000000000, 0.0000000000000000000, -1.000000000000000000 ) ) ;
#201 =( LENGTH_UNIT ( ) NAMED_UNIT ( * ) SI_UNIT ( .MILLI., .METRE. ) );
#202 = VECTOR ( 'NONE', #42, 1000.000000000000000 ) ;
#203 = CIRCLE ( 'NONE', #171, 25.00000000000000000 ) ;
#204 = DIRECTION ( 'NONE',  ( 0.0000000000000000000, 0.0000000000000000000, -1.000000000000000000 ) ) ;
#205 =( LENGTH_UNIT ( ) NAMED_UNIT ( * ) SI_UNIT ( .MILLI., .METRE. ) );
#206 = DIRECTION ( 'NONE',  ( 0.0000000000000000000, 0.0000000000000000000, -1.000000000000000000 ) ) ;
#207 = VERTEX_POINT ( 'NONE', #72 ) ;
#208 = EDGE_CURVE ( 'NONE', #102, #16, #167, .T. ) ;
#209 = ADVANCED_BREP_SHAPE_REPRESENTATION ( 'BRM 26x5', ( #241, #227 ), #269 ) ;
#210 = VECTOR ( 'NONE', #288, 1000.000000000000000 ) ;
#211 = CARTESIAN_POINT ( 'NONE',  ( -5.517094017093993052, 1.592040838891559095E-15, -13.00000000000000000 ) ) ;
#212 = ORIENTED_EDGE ( 'NONE', *, *, #280, .F. ) ;
#213 =( NAMED_UNIT ( * ) SI_UNIT ( $, .STERADIAN. ) SOLID_ANGLE_UNIT ( ) );
#214 = FACE_OUTER_BOUND ( 'NONE', #27, .T. ) ;
#215 = AXIS2_PLACEMENT_3D ( 'NONE', #173, #14, #62 ) ;
#216 =( GEOMETRIC_REPRESENTATION_CONTEXT ( 3 ) GLOBAL_UNCERTAINTY_ASSIGNED_CONTEXT ( ( #104 ) ) GLOBAL_UNIT_ASSIGNED_CONTEXT ( ( #122, #163, #213 ) ) REPRESENTATION_CONTEXT ( 'NONE', 'WORKASPACE' ) );
#217 = STYLED_ITEM ( 'NONE', ( #252 ), #209 ) ;
#218 = ORIENTED_EDGE ( 'NONE', *, *, #309, .T. ) ;
#219 = ORIENTED_EDGE ( 'NONE', *, *, #179, .F. ) ;
#220 = EDGE_CURVE ( 'NONE', #303, #53, #164, .T. ) ;
#221 = CIRCLE ( 'NONE', #38, 13.50000000000001243 ) ;
#222 = ORIENTED_EDGE ( 'NONE', *, *, #125, .F. ) ;
#223 = EDGE_LOOP ( 'NONE', ( #2, #4, #99, #149 ) ) ;
#224 = EDGE_CURVE ( 'NONE', #242, #88, #274, .T. ) ;
#225 = DIRECTION ( 'NONE',  ( 1.000000000000000000, 0.0000000000000000000, 0.0000000000000000000 ) ) ;
#226 = PLANE ( 'NONE',  #261 ) ;
#227 = AXIS2_PLACEMENT_3D ( 'NONE', #63, #41, #235 ) ;
#228 = CARTESIAN_POINT ( 'NONE',  ( 45.98290598290598297, 1.653273178848928444E-15, 13.50000000000001243 ) ) ;
#229 = CARTESIAN_POINT ( 'NONE',  ( -46.22222222222222143, 0.0000000000000000000, 0.0000000000000000000 ) ) ;
#230 = ADVANCED_FACE ( 'NONE', ( #186 ), #20, .F. ) ;
#231 = DIRECTION ( 'NONE',  ( 1.000000000000000000, 0.0000000000000000000, 0.0000000000000000000 ) ) ;
#232 = AXIS2_PLACEMENT_3D ( 'NONE', #86, #157, #152 ) ;
#233 = PRODUCT_CONTEXT ( 'NONE', #266, 'mechanical' ) ;
#234 = EDGE_LOOP ( 'NONE', ( #196, #197, #174, #40 ) ) ;
#235 = DIRECTION ( 'NONE',  ( 1.000000000000000000, 0.0000000000000000000, 0.0000000000000000000 ) ) ;
#236 = EDGE_CURVE ( 'NONE', #102, #207, #129, .T. ) ;
#237 = SURFACE_STYLE_FILL_AREA ( #166 ) ;
#238 = CARTESIAN_POINT ( 'NONE',  ( 45.98290598290598297, 3.061616997868383043E-15, -25.00000000000000000 ) ) ;
#239 = VECTOR ( 'NONE', #302, 1000.000000000000000 ) ;
#240 = CARTESIAN_POINT ( 'NONE',  ( 45.98290598290598297, 0.0000000000000000000, 0.0000000000000000000 ) ) ;
#241 = MANIFOLD_SOLID_BREP ( 'Chamfer1', #189 ) ;
#242 = VERTEX_POINT ( 'NONE', #123 ) ;
#243 = ORIENTED_EDGE ( 'NONE', *, *, #67, .F. ) ;
#244 = ORIENTED_EDGE ( 'NONE', *, *, #135, .T. ) ;
#245 = ORIENTED_EDGE ( 'NONE', *, *, #101, .T. ) ;
#246 = ORIENTED_EDGE ( 'NONE', *, *, #125, .T. ) ;
#247 = DIRECTION ( 'NONE',  ( -1.000000000000000000, -0.0000000000000000000, -0.0000000000000000000 ) ) ;
#248 = CARTESIAN_POINT ( 'NONE',  ( -46.22222222222222143, 1.592040838891559095E-15, -13.00000000000000000 ) ) ;
#249 = DIRECTION ( 'NONE',  ( -1.000000000000000000, 0.0000000000000000000, -0.0000000000000000000 ) ) ;
#250 = DIRECTION ( 'NONE',  ( -0.7071067811865389130, 8.659560562355038861E-17, -0.7071067811865561215 ) ) ;
#251 = DIRECTION ( 'NONE',  ( 0.0000000000000000000, 0.0000000000000000000, 1.000000000000000000 ) ) ;
#252 = PRESENTATION_STYLE_ASSIGNMENT (( #12 ) ) ;
#253 = CARTESIAN_POINT ( 'NONE',  ( 45.48290598290596876, 0.0000000000000000000, 0.0000000000000000000 ) ) ;
#254 = PRODUCT_DEFINITION_FORMATION_WITH_SPECIFIED_SOURCE ( 'ANY', '', #80, .NOT_KNOWN. ) ;
#255 = ORIENTED_EDGE ( 'NONE', *, *, #146, .F. ) ;
#256 = CARTESIAN_POINT ( 'NONE',  ( -5.517094017093993052, 0.0000000000000000000, 0.0000000000000000000 ) ) ;
#257 = CARTESIAN_POINT ( 'NONE',  ( 45.98290598290598297, 0.0000000000000000000, 0.0000000000000000000 ) ) ;
#258 = AXIS2_PLACEMENT_3D ( 'NONE', #257, #144, #92 ) ;
#259 = FILL_AREA_STYLE_COLOUR ( '', #301 ) ;
#260 = ORIENTED_EDGE ( 'NONE', *, *, #8, .T. ) ;
#261 = AXIS2_PLACEMENT_3D ( 'NONE', #59, #225, #200 ) ;
#262 = EDGE_CURVE ( 'NONE', #242, #187, #310, .T. ) ;
#263 = VERTEX_POINT ( 'NONE', #97 ) ;
#264 = CARTESIAN_POINT ( 'NONE',  ( -46.22222222222222143, 0.0000000000000000000, 0.0000000000000000000 ) ) ;
#265 = EDGE_LOOP ( 'NONE', ( #243, #246, #26, #290 ) ) ;
#266 = APPLICATION_CONTEXT ( 'automotive_design' ) ;
#267 = AXIS2_PLACEMENT_3D ( 'NONE', #229, #134, #5 ) ;
#268 = ORIENTED_EDGE ( 'NONE', *, *, #280, .T. ) ;
#269 =( GEOMETRIC_REPRESENTATION_CONTEXT ( 3 ) GLOBAL_UNCERTAINTY_ASSIGNED_CONTEXT ( ( #30 ) ) GLOBAL_UNIT_ASSIGNED_CONTEXT ( ( #201, #34, #83 ) ) REPRESENTATION_CONTEXT ( 'NONE', 'WORKASPACE' ) );
#270 = DIRECTION ( 'NONE',  ( -1.000000000000000000, -0.0000000000000000000, -0.0000000000000000000 ) ) ;
#271 = PLANE ( 'NONE',  #6 ) ;
#272 = EDGE_CURVE ( 'NONE', #263, #303, #203, .T. ) ;
#273 = FACE_OUTER_BOUND ( 'NONE', #126, .T. ) ;
#274 = CIRCLE ( 'NONE', #296, 13.00000000000000000 ) ;
#275 = AXIS2_PLACEMENT_3D ( 'NONE', #256, #118, #141 ) ;
#276 = DIRECTION ( 'NONE',  ( 1.000000000000000000, 0.0000000000000000000, 0.0000000000000000000 ) ) ;
#277 = DIRECTION ( 'NONE',  ( 0.7071067811865487940, 8.659560562354919300E-17, 0.7071067811865463515 ) ) ;
#278 = CARTESIAN_POINT ( 'NONE',  ( -6.017094017094014369, 0.0000000000000000000, 0.0000000000000000000 ) ) ;
#279 = DIRECTION ( 'NONE',  ( -1.000000000000000000, -0.0000000000000000000, -0.0000000000000000000 ) ) ;
#280 = EDGE_CURVE ( 'NONE', #105, #187, #66, .T. ) ;
#281 = ORIENTED_EDGE ( 'NONE', *, *, #291, .F. ) ;
#282 = DIRECTION ( 'NONE',  ( -1.000000000000000000, -0.0000000000000000000, -0.0000000000000000000 ) ) ;
#283 = CIRCLE ( 'NONE', #183, 13.00000000000000000 ) ;
#284 = ORIENTED_EDGE ( 'NONE', *, *, #262, .T. ) ;
#285 = DIRECTION ( 'NONE',  ( 0.0000000000000000000, 0.0000000000000000000, 1.000000000000000000 ) ) ;
#286 = DIRECTION ( 'NONE',  ( -0.7071067811865389130, 0.0000000000000000000, 0.7071067811865561215 ) ) ;
#287 = ADVANCED_FACE ( 'NONE', ( #214 ), #304, .T. ) ;
#288 = DIRECTION ( 'NONE',  ( 0.7071067811865487940, 0.0000000000000000000, -0.7071067811865463515 ) ) ;
#289 = DIRECTION ( 'NONE',  ( -1.000000000000000000, -0.0000000000000000000, -0.0000000000000000000 ) ) ;
#290 = ORIENTED_EDGE ( 'NONE', *, *, #262, .F. ) ;
#291 = EDGE_CURVE ( 'NONE', #88, #102, #90, .T. ) ;
#292 = ORIENTED_EDGE ( 'NONE', *, *, #185, .T. ) ;
#293 = CARTESIAN_POINT ( 'NONE',  ( -6.017094017094014369, 1.653273178848930811E-15, -13.50000000000003197 ) ) ;
#294 = ORIENTED_EDGE ( 'NONE', *, *, #48, .F. ) ;
#295 = EDGE_LOOP ( 'NONE', ( #292, #268 ) ) ;
#296 = AXIS2_PLACEMENT_3D ( 'NONE', #120, #69, #94 ) ;
#297 = CARTESIAN_POINT ( 'NONE',  ( -6.017094017094014369, 0.0000000000000000000, 25.00000000000000000 ) ) ;
#298 = ADVANCED_FACE ( 'NONE', ( #65 ), #39, .F. ) ;
#299 = CARTESIAN_POINT ( 'NONE',  ( 45.98290598290598297, 1.653273178848928444E-15, 13.50000000000001243 ) ) ;
#300 = FACE_BOUND ( 'NONE', #295, .T. ) ;
#301 = COLOUR_RGB ( '',0.7921568627450980005, 0.8196078431372548767, 0.9333333333333333481 ) ;
#302 = DIRECTION ( 'NONE',  ( -1.000000000000000000, -0.0000000000000000000, -0.0000000000000000000 ) ) ;
#303 = VERTEX_POINT ( 'NONE', #238 ) ;
#304 = CYLINDRICAL_SURFACE ( 'NONE', #195, 25.00000000000000000 ) ;
#305 = CIRCLE ( 'NONE', #29, 25.00000000000000000 ) ;
#306 = MECHANICAL_DESIGN_GEOMETRIC_PRESENTATION_REPRESENTATION (  '', ( #217 ), #178 ) ;
#307 = CARTESIAN_POINT ( 'NONE',  ( -5.517094017093993052, 0.0000000000000000000, 13.00000000000000000 ) ) ;
#308 = ORIENTED_EDGE ( 'NONE', *, *, #67, .T. ) ;
#309 = EDGE_CURVE ( 'NONE', #207, #23, #19, .T. ) ;
#310 = LINE ( 'NONE', #37, #210 ) ;
#311 = CIRCLE ( 'NONE', #36, 13.00000000000000000 ) ;
#312 = EDGE_CURVE ( 'NONE', #23, #16, #58, .T. ) ;
#313 = ORIENTED_EDGE ( 'NONE', *, *, #224, .F. ) ;
#314 = ORIENTED_EDGE ( 'NONE', *, *, #135, .F. ) ;
ENDSEC;
END-ISO-10303-21;
