ISO-10303-21;
HEADER;
FILE_DESCRIPTION (( 'STEP AP214' ),
    '1' );
FILE_NAME ('BRM 22x5.step',
    '2020-09-08T10:23:04',
    ( '' ),
    ( '' ),
    'SwSTEP 2.0',
    'SolidWorks 2020',
    '' );
FILE_SCHEMA (( 'AUTOMOTIVE_DESIGN' ));
ENDSEC;

DATA;
#1 = CIRCLE ( 'NONE', #150, 11.49999999999998224 ) ;
#2 = AXIS2_PLACEMENT_3D ( 'NONE', #184, #22, #112 ) ;
#3 = DIRECTION ( 'NONE',  ( 0.0000000000000000000, 0.0000000000000000000, 1.000000000000000000 ) ) ;
#4 = EDGE_LOOP ( 'NONE', ( #199, #55 ) ) ;
#5 = FACE_OUTER_BOUND ( 'NONE', #30, .T. ) ;
#6 = EDGE_LOOP ( 'NONE', ( #173, #170, #247, #206 ) ) ;
#7 = EDGE_LOOP ( 'NONE', ( #193, #245, #269, #141 ) ) ;
#8 = AXIS2_PLACEMENT_3D ( 'NONE', #242, #118, #220 ) ;
#9 = EDGE_CURVE ( 'NONE', #290, #267, #176, .T. ) ;
#10 = EDGE_LOOP ( 'NONE', ( #147, #122 ) ) ;
#11 = VERTEX_POINT ( 'NONE', #56 ) ;
#12 = PRODUCT_CONTEXT ( 'NONE', #50, 'mechanical' ) ;
#13 = LINE ( 'NONE', #130, #121 ) ;
#14 = EDGE_CURVE ( 'NONE', #74, #200, #159, .T. ) ;
#15 = DIRECTION ( 'NONE',  ( 0.0000000000000000000, 0.0000000000000000000, 1.000000000000000000 ) ) ;
#16 = CARTESIAN_POINT ( 'NONE',  ( 37.98290598290599007, 0.0000000000000000000, -11.49999999999998934 ) ) ;
#17 = CARTESIAN_POINT ( 'NONE',  ( 37.98290598290599007, 0.0000000000000000000, 0.0000000000000000000 ) ) ;
#18 = ADVANCED_FACE ( 'NONE', ( #60 ), #177, .F. ) ;
#19 = VECTOR ( 'NONE', #304, 1000.000000000000000 ) ;
#20 =( NAMED_UNIT ( * ) SI_UNIT ( $, .STERADIAN. ) SOLID_ANGLE_UNIT ( ) );
#21 = PRESENTATION_LAYER_ASSIGNMENT (  '', '', ( #211 ) ) ;
#22 = DIRECTION ( 'NONE',  ( -1.000000000000000000, -0.0000000000000000000, -0.0000000000000000000 ) ) ;
#23 = CARTESIAN_POINT ( 'NONE',  ( -46.22222222222222143, 0.0000000000000000000, 0.0000000000000000000 ) ) ;
#24 = LINE ( 'NONE', #246, #160 ) ;
#25 = EDGE_CURVE ( 'NONE', #290, #92, #302, .T. ) ;
#26 = ORIENTED_EDGE ( 'NONE', *, *, #126, .T. ) ;
#27 = FACE_BOUND ( 'NONE', #10, .T. ) ;
#28 = ORIENTED_EDGE ( 'NONE', *, *, #116, .T. ) ;
#29 = CARTESIAN_POINT ( 'NONE',  ( -6.017094017094014369, 0.0000000000000000000, 0.0000000000000000000 ) ) ;
#30 = EDGE_LOOP ( 'NONE', ( #226, #248, #47, #168 ) ) ;
#31 = EDGE_CURVE ( 'NONE', #267, #200, #33, .T. ) ;
#32 = VERTEX_POINT ( 'NONE', #298 ) ;
#33 = CIRCLE ( 'NONE', #120, 11.00000000000000000 ) ;
#34 = ORIENTED_EDGE ( 'NONE', *, *, #116, .F. ) ;
#35 =( NAMED_UNIT ( * ) PLANE_ANGLE_UNIT ( ) SI_UNIT ( $, .RADIAN. ) );
#36 = MANIFOLD_SOLID_BREP ( 'Chamfer1', #44 ) ;
#37 =( NAMED_UNIT ( * ) PLANE_ANGLE_UNIT ( ) SI_UNIT ( $, .RADIAN. ) );
#38 = LINE ( 'NONE', #129, #285 ) ;
#39 = DIRECTION ( 'NONE',  ( 1.000000000000000000, 0.0000000000000000000, 0.0000000000000000000 ) ) ;
#40 = SURFACE_SIDE_STYLE ('',( #251 ) ) ;
#41 = DIRECTION ( 'NONE',  ( 0.0000000000000000000, 0.0000000000000000000, -1.000000000000000000 ) ) ;
#42 = VECTOR ( 'NONE', #254, 1000.000000000000000 ) ;
#43 = DIRECTION ( 'NONE',  ( 0.0000000000000000000, 0.0000000000000000000, -1.000000000000000000 ) ) ;
#44 = CLOSED_SHELL ( 'NONE', ( #104, #110, #133, #280, #162, #191, #153, #256, #18, #57 ) ) ;
#45 = FACE_OUTER_BOUND ( 'NONE', #249, .T. ) ;
#46 = DIRECTION ( 'NONE',  ( 0.0000000000000000000, 0.0000000000000000000, -1.000000000000000000 ) ) ;
#47 = ORIENTED_EDGE ( 'NONE', *, *, #295, .T. ) ;
#48 = CYLINDRICAL_SURFACE ( 'NONE', #143, 11.00000000000000000 ) ;
#49 = EDGE_LOOP ( 'NONE', ( #66, #270, #294, #98 ) ) ;
#50 = APPLICATION_CONTEXT ( 'automotive_design' ) ;
#51 = DIRECTION ( 'NONE',  ( -1.000000000000000000, -0.0000000000000000000, -0.0000000000000000000 ) ) ;
#52 = EDGE_LOOP ( 'NONE', ( #26, #146 ) ) ;
#53 = UNCERTAINTY_MEASURE_WITH_UNIT (LENGTH_MEASURE( 1.000000000000000082E-05 ), #81, 'distance_accuracy_value', 'NONE');
#54 = ORIENTED_EDGE ( 'NONE', *, *, #185, .F. ) ;
#55 = ORIENTED_EDGE ( 'NONE', *, *, #283, .T. ) ;
#56 = CARTESIAN_POINT ( 'NONE',  ( 37.98290598290599007, 2.755455298081544778E-15, -22.50000000000000000 ) ) ;
#57 = ADVANCED_FACE ( 'NONE', ( #233 ), #253, .F. ) ;
#58 = DIRECTION ( 'NONE',  ( 1.000000000000000000, -0.0000000000000000000, -0.0000000000000000000 ) ) ;
#59 = CIRCLE ( 'NONE', #182, 11.49999999999999645 ) ;
#60 = FACE_OUTER_BOUND ( 'NONE', #219, .T. ) ;
#61 = CARTESIAN_POINT ( 'NONE',  ( -46.22222222222222143, 2.755455298081544778E-15, -22.50000000000000000 ) ) ;
#62 = DIRECTION ( 'NONE',  ( -1.000000000000000000, 0.0000000000000000000, 0.0000000000000000000 ) ) ;
#63 = DIRECTION ( 'NONE',  ( -1.000000000000000000, -0.0000000000000000000, -0.0000000000000000000 ) ) ;
#64 = CARTESIAN_POINT ( 'NONE',  ( 37.98290598290599007, 0.0000000000000000000, 22.50000000000000000 ) ) ;
#65 = FACE_OUTER_BOUND ( 'NONE', #49, .T. ) ;
#66 = ORIENTED_EDGE ( 'NONE', *, *, #134, .T. ) ;
#67 = CARTESIAN_POINT ( 'NONE',  ( -46.22222222222222143, 0.0000000000000000000, 0.0000000000000000000 ) ) ;
#68 = PRODUCT_DEFINITION_SHAPE ( 'NONE', 'NONE',  #266 ) ;
#69 = ORIENTED_EDGE ( 'NONE', *, *, #134, .F. ) ;
#70 = DIRECTION ( 'NONE',  ( 0.0000000000000000000, 0.0000000000000000000, 1.000000000000000000 ) ) ;
#71 = EDGE_CURVE ( 'NONE', #74, #271, #80, .T. ) ;
#72 = MECHANICAL_DESIGN_GEOMETRIC_PRESENTATION_REPRESENTATION (  '', ( #211 ), #224 ) ;
#73 = COLOUR_RGB ( '',0.7921568627450980005, 0.8196078431372548767, 0.9333333333333333481 ) ;
#74 = VERTEX_POINT ( 'NONE', #154 ) ;
#75 = ORIENTED_EDGE ( 'NONE', *, *, #238, .F. ) ;
#76 = CARTESIAN_POINT ( 'NONE',  ( -5.517094017094013481, 0.0000000000000000000, 0.0000000000000000000 ) ) ;
#77 = APPLICATION_PROTOCOL_DEFINITION ( 'draft international standard', 'automotive_design', 1998, #99 ) ;
#78 = EDGE_CURVE ( 'NONE', #200, #32, #38, .T. ) ;
#79 = AXIS2_PLACEMENT_3D ( 'NONE', #124, #105, #208 ) ;
#80 = LINE ( 'NONE', #155, #42 ) ;
#81 =( LENGTH_UNIT ( ) NAMED_UNIT ( * ) SI_UNIT ( .MILLI., .METRE. ) );
#82 = DIRECTION ( 'NONE',  ( 0.7071067811865549002, 0.0000000000000000000, -0.7071067811865401342 ) ) ;
#83 = CARTESIAN_POINT ( 'NONE',  ( -46.22222222222222143, 0.0000000000000000000, 0.0000000000000000000 ) ) ;
#84 = EDGE_CURVE ( 'NONE', #290, #74, #293, .T. ) ;
#85 = CARTESIAN_POINT ( 'NONE',  ( -5.517094017094013481, 0.0000000000000000000, 0.0000000000000000000 ) ) ;
#86 = DIRECTION ( 'NONE',  ( 1.000000000000000000, -0.0000000000000000000, -0.0000000000000000000 ) ) ;
#87 = PLANE ( 'NONE',  #8 ) ;
#88 = PRESENTATION_LAYER_ASSIGNMENT (  '', '', ( #103 ) ) ;
#89 = FACE_OUTER_BOUND ( 'NONE', #102, .T. ) ;
#90 = PLANE ( 'NONE',  #205 ) ;
#91 = DIRECTION ( 'NONE',  ( 1.000000000000000000, 0.0000000000000000000, 0.0000000000000000000 ) ) ;
#92 = VERTEX_POINT ( 'NONE', #107 ) ;
#93 = DIRECTION ( 'NONE',  ( 0.0000000000000000000, 0.0000000000000000000, 1.000000000000000000 ) ) ;
#94 = PRODUCT ( 'BRM 22x5', 'BRM 22x5', '', ( #12 ) ) ;
#95 = ORIENTED_EDGE ( 'NONE', *, *, #196, .T. ) ;
#96 = ORIENTED_EDGE ( 'NONE', *, *, #14, .T. ) ;
#97 = AXIS2_PLACEMENT_3D ( 'NONE', #135, #51, #145 ) ;
#98 = ORIENTED_EDGE ( 'NONE', *, *, #295, .F. ) ;
#99 = APPLICATION_CONTEXT ( 'automotive_design' ) ;
#100 = EDGE_CURVE ( 'NONE', #92, #271, #1, .T. ) ;
#101 = ORIENTED_EDGE ( 'NONE', *, *, #244, .F. ) ;
#102 = EDGE_LOOP ( 'NONE', ( #172, #241, #96, #95 ) ) ;
#103 = STYLED_ITEM ( 'NONE', ( #128 ), #306 ) ;
#104 = ADVANCED_FACE ( 'NONE', ( #109 ), #236, .F. ) ;
#105 = DIRECTION ( 'NONE',  ( 1.000000000000000000, -0.0000000000000000000, -0.0000000000000000000 ) ) ;
#106 = DIRECTION ( 'NONE',  ( -1.000000000000000000, -0.0000000000000000000, -0.0000000000000000000 ) ) ;
#107 = CARTESIAN_POINT ( 'NONE',  ( 37.98290598290598297, 0.0000000000000000000, -11.49999999999998224 ) ) ;
#108 = AXIS2_PLACEMENT_3D ( 'NONE', #297, #231, #39 ) ;
#109 = FACE_OUTER_BOUND ( 'NONE', #6, .T. ) ;
#110 = ADVANCED_FACE ( 'NONE', ( #279 ), #115, .F. ) ;
#111 = AXIS2_PLACEMENT_3D ( 'NONE', #228, #58, #41 ) ;
#112 = DIRECTION ( 'NONE',  ( 0.0000000000000000000, 0.0000000000000000000, 1.000000000000000000 ) ) ;
#113 = DIRECTION ( 'NONE',  ( 0.0000000000000000000, 0.0000000000000000000, 1.000000000000000000 ) ) ;
#114 = DIRECTION ( 'NONE',  ( -1.000000000000000000, -0.0000000000000000000, -0.0000000000000000000 ) ) ;
#115 = CONICAL_SURFACE ( 'NONE', #300, 11.00000000000000000, 0.7853981633974447263 ) ;
#116 = EDGE_CURVE ( 'NONE', #267, #201, #24, .T. ) ;
#117 = VERTEX_POINT ( 'NONE', #142 ) ;
#118 = DIRECTION ( 'NONE',  ( -1.000000000000000000, 0.0000000000000000000, -0.0000000000000000000 ) ) ;
#119 = VERTEX_POINT ( 'NONE', #64 ) ;
#120 = AXIS2_PLACEMENT_3D ( 'NONE', #210, #276, #234 ) ;
#121 = VECTOR ( 'NONE', #106, 1000.000000000000000 ) ;
#122 = ORIENTED_EDGE ( 'NONE', *, *, #238, .T. ) ;
#123 = FILL_AREA_STYLE ('',( #179 ) ) ;
#124 = CARTESIAN_POINT ( 'NONE',  ( 37.48290598290599007, 0.0000000000000000000, 0.0000000000000000000 ) ) ;
#125 = SURFACE_STYLE_USAGE ( .BOTH. , #303 ) ;
#126 = EDGE_CURVE ( 'NONE', #117, #221, #281, .T. ) ;
#127 = VECTOR ( 'NONE', #180, 1000.000000000000000 ) ;
#128 = PRESENTATION_STYLE_ASSIGNMENT (( #125 ) ) ;
#129 = CARTESIAN_POINT ( 'NONE',  ( -5.517094017094013481, 0.0000000000000000000, 11.00000000000000000 ) ) ;
#130 = CARTESIAN_POINT ( 'NONE',  ( -46.22222222222222143, 0.0000000000000000000, 22.50000000000000000 ) ) ;
#131 = DIRECTION ( 'NONE',  ( 0.0000000000000000000, 0.0000000000000000000, 1.000000000000000000 ) ) ;
#132 = CIRCLE ( 'NONE', #161, 22.50000000000000000 ) ;
#133 = ADVANCED_FACE ( 'NONE', ( #289 ), #48, .F. ) ;
#134 = EDGE_CURVE ( 'NONE', #119, #11, #277, .T. ) ;
#135 = CARTESIAN_POINT ( 'NONE',  ( -6.017094017094014369, 0.0000000000000000000, 0.0000000000000000000 ) ) ;
#136 = AXIS2_PLACEMENT_3D ( 'NONE', #167, #63, #313 ) ;
#137 = AXIS2_PLACEMENT_3D ( 'NONE', #23, #262, #93 ) ;
#138 = CARTESIAN_POINT ( 'NONE',  ( -6.017094017094014369, 0.0000000000000000000, 0.0000000000000000000 ) ) ;
#139 = PRODUCT_DEFINITION_CONTEXT ( 'detailed design', #99, 'design' ) ;
#140 = CARTESIAN_POINT ( 'NONE',  ( -6.017094017094014369, 1.408343819019455781E-15, -11.49999999999999645 ) ) ;
#141 = ORIENTED_EDGE ( 'NONE', *, *, #283, .F. ) ;
#142 = CARTESIAN_POINT ( 'NONE',  ( -6.017094017094014369, 0.0000000000000000000, 22.50000000000000000 ) ) ;
#143 = AXIS2_PLACEMENT_3D ( 'NONE', #67, #287, #70 ) ;
#144 = ORIENTED_EDGE ( 'NONE', *, *, #31, .T. ) ;
#145 = DIRECTION ( 'NONE',  ( 0.0000000000000000000, 0.0000000000000000000, 1.000000000000000000 ) ) ;
#146 = ORIENTED_EDGE ( 'NONE', *, *, #222, .T. ) ;
#147 = ORIENTED_EDGE ( 'NONE', *, *, #185, .T. ) ;
#148 = EDGE_LOOP ( 'NONE', ( #296, #272, #144, #227 ) ) ;
#149 = APPLICATION_PROTOCOL_DEFINITION ( 'draft international standard', 'automotive_design', 1998, #50 ) ;
#150 = AXIS2_PLACEMENT_3D ( 'NONE', #308, #307, #131 ) ;
#151 = AXIS2_PLACEMENT_3D ( 'NONE', #188, #218, #113 ) ;
#152 =( LENGTH_UNIT ( ) NAMED_UNIT ( * ) SI_UNIT ( .MILLI., .METRE. ) );
#153 = ADVANCED_FACE ( 'NONE', ( #282, #45 ), #87, .F. ) ;
#154 = CARTESIAN_POINT ( 'NONE',  ( 37.48290598290599007, 0.0000000000000000000, 11.00000000000000000 ) ) ;
#155 = CARTESIAN_POINT ( 'NONE',  ( 37.98290598290599007, 1.408343819019454795E-15, 11.49999999999998934 ) ) ;
#156 = SHAPE_DEFINITION_REPRESENTATION ( #68, #306 ) ;
#157 = COLOUR_RGB ( '',0.7921568627450980005, 0.8196078431372548767, 0.9333333333333333481 ) ;
#158 = DIRECTION ( 'NONE',  ( -1.000000000000000000, 0.0000000000000000000, 0.0000000000000000000 ) ) ;
#159 = LINE ( 'NONE', #203, #19 ) ;
#160 = VECTOR ( 'NONE', #217, 1000.000000000000114 ) ;
#161 = AXIS2_PLACEMENT_3D ( 'NONE', #310, #114, #3 ) ;
#162 = ADVANCED_FACE ( 'NONE', ( #27, #163 ), #90, .F. ) ;
#163 = FACE_OUTER_BOUND ( 'NONE', #52, .T. ) ;
#164 = CARTESIAN_POINT ( 'NONE',  ( 37.98290598290598297, 1.408343819019454007E-15, 11.49999999999998224 ) ) ;
#165 = CYLINDRICAL_SURFACE ( 'NONE', #178, 22.50000000000000000 ) ;
#166 = ORIENTED_EDGE ( 'NONE', *, *, #78, .F. ) ;
#167 = CARTESIAN_POINT ( 'NONE',  ( 37.98290598290599007, 0.0000000000000000000, 0.0000000000000000000 ) ) ;
#168 = ORIENTED_EDGE ( 'NONE', *, *, #222, .F. ) ;
#169 = DIRECTION ( 'NONE',  ( 0.0000000000000000000, 0.0000000000000000000, 1.000000000000000000 ) ) ;
#170 = ORIENTED_EDGE ( 'NONE', *, *, #71, .T. ) ;
#171 = MECHANICAL_DESIGN_GEOMETRIC_PRESENTATION_REPRESENTATION (  '', ( #103 ), #309 ) ;
#172 = ORIENTED_EDGE ( 'NONE', *, *, #9, .F. ) ;
#173 = ORIENTED_EDGE ( 'NONE', *, *, #275, .F. ) ;
#174 = DIRECTION ( 'NONE',  ( -1.000000000000000000, -0.0000000000000000000, -0.0000000000000000000 ) ) ;
#175 = UNCERTAINTY_MEASURE_WITH_UNIT (LENGTH_MEASURE( 1.000000000000000082E-05 ), #257, 'distance_accuracy_value', 'NONE');
#176 = LINE ( 'NONE', #278, #127 ) ;
#177 = CONICAL_SURFACE ( 'NONE', #214, 11.00000000000000000, 0.7853981633974447263 ) ;
#178 = AXIS2_PLACEMENT_3D ( 'NONE', #83, #258, #209 ) ;
#179 = FILL_AREA_STYLE_COLOUR ( '', #157 ) ;
#180 = DIRECTION ( 'NONE',  ( -1.000000000000000000, -0.0000000000000000000, -0.0000000000000000000 ) ) ;
#181 =( NAMED_UNIT ( * ) SI_UNIT ( $, .STERADIAN. ) SOLID_ANGLE_UNIT ( ) );
#182 = AXIS2_PLACEMENT_3D ( 'NONE', #138, #91, #46 ) ;
#183 = DIRECTION ( 'NONE',  ( 0.0000000000000000000, 0.0000000000000000000, -1.000000000000000000 ) ) ;
#184 = CARTESIAN_POINT ( 'NONE',  ( -46.22222222222222143, 0.0000000000000000000, 0.0000000000000000000 ) ) ;
#185 = EDGE_CURVE ( 'NONE', #32, #201, #59, .T. ) ;
#186 =( GEOMETRIC_REPRESENTATION_CONTEXT ( 3 ) GLOBAL_UNCERTAINTY_ASSIGNED_CONTEXT ( ( #288 ) ) GLOBAL_UNIT_ASSIGNED_CONTEXT ( ( #152, #299, #181 ) ) REPRESENTATION_CONTEXT ( 'NONE', 'WORKASPACE' ) );
#187 = CARTESIAN_POINT ( 'NONE',  ( -6.017094017094014369, 2.755455298081544778E-15, -22.50000000000000000 ) ) ;
#188 = CARTESIAN_POINT ( 'NONE',  ( 37.48290598290599007, 0.0000000000000000000, 0.0000000000000000000 ) ) ;
#189 = VECTOR ( 'NONE', #82, 1000.000000000000000 ) ;
#190 = PRODUCT_DEFINITION_FORMATION_WITH_SPECIFIED_SOURCE ( 'ANY', '', #94, .NOT_KNOWN. ) ;
#191 = ADVANCED_FACE ( 'NONE', ( #5 ), #239, .T. ) ;
#192 = CARTESIAN_POINT ( 'NONE',  ( -5.517094017094013481, 0.0000000000000000000, 0.0000000000000000000 ) ) ;
#193 = ORIENTED_EDGE ( 'NONE', *, *, #71, .F. ) ;
#194 = CARTESIAN_POINT ( 'NONE',  ( -6.017094017094014369, 0.0000000000000000000, 0.0000000000000000000 ) ) ;
#195 = ORIENTED_EDGE ( 'NONE', *, *, #78, .T. ) ;
#196 = EDGE_CURVE ( 'NONE', #200, #267, #235, .T. ) ;
#197 = AXIS2_PLACEMENT_3D ( 'NONE', #194, #263, #265 ) ;
#198 = AXIS2_PLACEMENT_3D ( 'NONE', #29, #237, #213 ) ;
#199 = ORIENTED_EDGE ( 'NONE', *, *, #100, .T. ) ;
#200 = VERTEX_POINT ( 'NONE', #268 ) ;
#201 = VERTEX_POINT ( 'NONE', #140 ) ;
#202 = CARTESIAN_POINT ( 'NONE',  ( 37.98290598290598297, 0.0000000000000000000, 0.0000000000000000000 ) ) ;
#203 = CARTESIAN_POINT ( 'NONE',  ( -46.22222222222222143, 0.0000000000000000000, 11.00000000000000000 ) ) ;
#204 = DIRECTION ( 'NONE',  ( 0.0000000000000000000, 0.0000000000000000000, 1.000000000000000000 ) ) ;
#205 = AXIS2_PLACEMENT_3D ( 'NONE', #314, #291, #260 ) ;
#206 = ORIENTED_EDGE ( 'NONE', *, *, #25, .F. ) ;
#207 = FILL_AREA_STYLE_COLOUR ( '', #73 ) ;
#208 = DIRECTION ( 'NONE',  ( 0.0000000000000000000, 0.0000000000000000000, 1.000000000000000000 ) ) ;
#209 = DIRECTION ( 'NONE',  ( 0.0000000000000000000, 0.0000000000000000000, 1.000000000000000000 ) ) ;
#210 = CARTESIAN_POINT ( 'NONE',  ( -5.517094017094013481, 0.0000000000000000000, 0.0000000000000000000 ) ) ;
#211 = STYLED_ITEM ( 'NONE', ( #252 ), #36 ) ;
#212 = CIRCLE ( 'NONE', #243, 11.49999999999998224 ) ;
#213 = DIRECTION ( 'NONE',  ( 0.0000000000000000000, 0.0000000000000000000, -1.000000000000000000 ) ) ;
#214 = AXIS2_PLACEMENT_3D ( 'NONE', #85, #158, #15 ) ;
#215 = CIRCLE ( 'NONE', #198, 11.49999999999999645 ) ;
#216 = CARTESIAN_POINT ( 'NONE',  ( -5.517094017094013481, 1.347111479062088405E-15, -11.00000000000000000 ) ) ;
#217 = DIRECTION ( 'NONE',  ( -0.7071067811865500152, 8.659560562354903276E-17, -0.7071067811865451302 ) ) ;
#218 = DIRECTION ( 'NONE',  ( 1.000000000000000000, -0.0000000000000000000, -0.0000000000000000000 ) ) ;
#219 = EDGE_LOOP ( 'NONE', ( #34, #264, #195, #75 ) ) ;
#220 = DIRECTION ( 'NONE',  ( -0.0000000000000000000, 0.0000000000000000000, 1.000000000000000000 ) ) ;
#221 = VERTEX_POINT ( 'NONE', #187 ) ;
#222 = EDGE_CURVE ( 'NONE', #221, #117, #301, .T. ) ;
#223 = EDGE_LOOP ( 'NONE', ( #292, #28, #54, #166 ) ) ;
#224 =( GEOMETRIC_REPRESENTATION_CONTEXT ( 3 ) GLOBAL_UNCERTAINTY_ASSIGNED_CONTEXT ( ( #175 ) ) GLOBAL_UNIT_ASSIGNED_CONTEXT ( ( #257, #37, #20 ) ) REPRESENTATION_CONTEXT ( 'NONE', 'WORKASPACE' ) );
#225 = VECTOR ( 'NONE', #273, 1000.000000000000000 ) ;
#226 = ORIENTED_EDGE ( 'NONE', *, *, #312, .F. ) ;
#227 = ORIENTED_EDGE ( 'NONE', *, *, #14, .F. ) ;
#228 = CARTESIAN_POINT ( 'NONE',  ( 37.98290598290599007, 0.0000000000000000000, 0.0000000000000000000 ) ) ;
#229 = SURFACE_STYLE_FILL_AREA ( #250 ) ;
#230 = SURFACE_STYLE_USAGE ( .BOTH. , #40 ) ;
#231 = DIRECTION ( 'NONE',  ( 0.0000000000000000000, 0.0000000000000000000, 1.000000000000000000 ) ) ;
#232 = DIRECTION ( 'NONE',  ( -0.7071067811865500152, 0.0000000000000000000, 0.7071067811865451302 ) ) ;
#233 = FACE_OUTER_BOUND ( 'NONE', #7, .T. ) ;
#234 = DIRECTION ( 'NONE',  ( 0.0000000000000000000, 0.0000000000000000000, -1.000000000000000000 ) ) ;
#235 = CIRCLE ( 'NONE', #311, 11.00000000000000000 ) ;
#236 = CONICAL_SURFACE ( 'NONE', #259, 11.49999999999998934, 0.7853981633974378429 ) ;
#237 = DIRECTION ( 'NONE',  ( 1.000000000000000000, 0.0000000000000000000, 0.0000000000000000000 ) ) ;
#238 = EDGE_CURVE ( 'NONE', #201, #32, #215, .T. ) ;
#239 = CYLINDRICAL_SURFACE ( 'NONE', #137, 22.50000000000000000 ) ;
#240 = CYLINDRICAL_SURFACE ( 'NONE', #2, 11.00000000000000000 ) ;
#241 = ORIENTED_EDGE ( 'NONE', *, *, #84, .T. ) ;
#242 = CARTESIAN_POINT ( 'NONE',  ( 37.98290598290598297, 22.50000000000000000, 0.0000000000000000000 ) ) ;
#243 = AXIS2_PLACEMENT_3D ( 'NONE', #202, #174, #204 ) ;
#244 = EDGE_CURVE ( 'NONE', #11, #119, #132, .T. ) ;
#245 = ORIENTED_EDGE ( 'NONE', *, *, #84, .F. ) ;
#246 = CARTESIAN_POINT ( 'NONE',  ( -5.517094017094013481, 1.347111479062088405E-15, -11.00000000000000000 ) ) ;
#247 = ORIENTED_EDGE ( 'NONE', *, *, #100, .F. ) ;
#248 = ORIENTED_EDGE ( 'NONE', *, *, #244, .T. ) ;
#249 = EDGE_LOOP ( 'NONE', ( #69, #101 ) ) ;
#250 = FILL_AREA_STYLE ('',( #207 ) ) ;
#251 = SURFACE_STYLE_FILL_AREA ( #123 ) ;
#252 = PRESENTATION_STYLE_ASSIGNMENT (( #230 ) ) ;
#253 = CONICAL_SURFACE ( 'NONE', #111, 11.49999999999998934, 0.7853981633974378429 ) ;
#254 = DIRECTION ( 'NONE',  ( 0.7071067811865549002, 8.659560562354844111E-17, 0.7071067811865401342 ) ) ;
#255 = CARTESIAN_POINT ( 'NONE',  ( 37.48290598290599007, 1.347111479062088405E-15, -11.00000000000000000 ) ) ;
#256 = ADVANCED_FACE ( 'NONE', ( #89 ), #240, .F. ) ;
#257 =( LENGTH_UNIT ( ) NAMED_UNIT ( * ) SI_UNIT ( .MILLI., .METRE. ) );
#258 = DIRECTION ( 'NONE',  ( -1.000000000000000000, -0.0000000000000000000, -0.0000000000000000000 ) ) ;
#259 = AXIS2_PLACEMENT_3D ( 'NONE', #17, #86, #183 ) ;
#260 = DIRECTION ( 'NONE',  ( 0.0000000000000000000, 0.0000000000000000000, -1.000000000000000000 ) ) ;
#261 = PRODUCT_RELATED_PRODUCT_CATEGORY ( 'part', '', ( #94 ) ) ;
#262 = DIRECTION ( 'NONE',  ( -1.000000000000000000, -0.0000000000000000000, -0.0000000000000000000 ) ) ;
#263 = DIRECTION ( 'NONE',  ( -1.000000000000000000, -0.0000000000000000000, -0.0000000000000000000 ) ) ;
#264 = ORIENTED_EDGE ( 'NONE', *, *, #196, .F. ) ;
#265 = DIRECTION ( 'NONE',  ( 0.0000000000000000000, 0.0000000000000000000, 1.000000000000000000 ) ) ;
#266 = PRODUCT_DEFINITION ( 'UNKNOWN', '', #190, #139 ) ;
#267 = VERTEX_POINT ( 'NONE', #216 ) ;
#268 = CARTESIAN_POINT ( 'NONE',  ( -5.517094017094013481, 0.0000000000000000000, 11.00000000000000000 ) ) ;
#269 = ORIENTED_EDGE ( 'NONE', *, *, #25, .T. ) ;
#270 = ORIENTED_EDGE ( 'NONE', *, *, #312, .T. ) ;
#271 = VERTEX_POINT ( 'NONE', #164 ) ;
#272 = ORIENTED_EDGE ( 'NONE', *, *, #9, .T. ) ;
#273 = DIRECTION ( 'NONE',  ( -1.000000000000000000, -0.0000000000000000000, -0.0000000000000000000 ) ) ;
#274 = LINE ( 'NONE', #61, #225 ) ;
#275 = EDGE_CURVE ( 'NONE', #74, #290, #286, .T. ) ;
#276 = DIRECTION ( 'NONE',  ( -1.000000000000000000, 0.0000000000000000000, 0.0000000000000000000 ) ) ;
#277 = CIRCLE ( 'NONE', #136, 22.50000000000000000 ) ;
#278 = CARTESIAN_POINT ( 'NONE',  ( -46.22222222222222143, 1.347111479062088405E-15, -11.00000000000000000 ) ) ;
#279 = FACE_OUTER_BOUND ( 'NONE', #223, .T. ) ;
#280 = ADVANCED_FACE ( 'NONE', ( #65 ), #165, .T. ) ;
#281 = CIRCLE ( 'NONE', #197, 22.50000000000000000 ) ;
#282 = FACE_BOUND ( 'NONE', #4, .T. ) ;
#283 = EDGE_CURVE ( 'NONE', #271, #92, #212, .T. ) ;
#284 = DIRECTION ( 'NONE',  ( -1.000000000000000000, 0.0000000000000000000, 0.0000000000000000000 ) ) ;
#285 = VECTOR ( 'NONE', #232, 1000.000000000000114 ) ;
#286 = CIRCLE ( 'NONE', #151, 11.00000000000000000 ) ;
#287 = DIRECTION ( 'NONE',  ( -1.000000000000000000, -0.0000000000000000000, -0.0000000000000000000 ) ) ;
#288 = UNCERTAINTY_MEASURE_WITH_UNIT (LENGTH_MEASURE( 1.000000000000000082E-05 ), #152, 'distance_accuracy_value', 'NONE');
#289 = FACE_OUTER_BOUND ( 'NONE', #148, .T. ) ;
#290 = VERTEX_POINT ( 'NONE', #255 ) ;
#291 = DIRECTION ( 'NONE',  ( 1.000000000000000000, 0.0000000000000000000, 0.0000000000000000000 ) ) ;
#292 = ORIENTED_EDGE ( 'NONE', *, *, #31, .F. ) ;
#293 = CIRCLE ( 'NONE', #79, 11.00000000000000000 ) ;
#294 = ORIENTED_EDGE ( 'NONE', *, *, #126, .F. ) ;
#295 = EDGE_CURVE ( 'NONE', #119, #117, #13, .T. ) ;
#296 = ORIENTED_EDGE ( 'NONE', *, *, #275, .T. ) ;
#297 = CARTESIAN_POINT ( 'NONE',  ( 0.0000000000000000000, 0.0000000000000000000, 0.0000000000000000000 ) ) ;
#298 = CARTESIAN_POINT ( 'NONE',  ( -6.017094017094014369, 0.0000000000000000000, 11.49999999999999645 ) ) ;
#299 =( NAMED_UNIT ( * ) PLANE_ANGLE_UNIT ( ) SI_UNIT ( $, .RADIAN. ) );
#300 = AXIS2_PLACEMENT_3D ( 'NONE', #76, #62, #169 ) ;
#301 = CIRCLE ( 'NONE', #97, 22.50000000000000000 ) ;
#302 = LINE ( 'NONE', #16, #189 ) ;
#303 = SURFACE_SIDE_STYLE ('',( #229 ) ) ;
#304 = DIRECTION ( 'NONE',  ( -1.000000000000000000, -0.0000000000000000000, -0.0000000000000000000 ) ) ;
#305 =( NAMED_UNIT ( * ) SI_UNIT ( $, .STERADIAN. ) SOLID_ANGLE_UNIT ( ) );
#306 = ADVANCED_BREP_SHAPE_REPRESENTATION ( 'BRM 22x5', ( #36, #108 ), #186 ) ;
#307 = DIRECTION ( 'NONE',  ( -1.000000000000000000, -0.0000000000000000000, -0.0000000000000000000 ) ) ;
#308 = CARTESIAN_POINT ( 'NONE',  ( 37.98290598290598297, 0.0000000000000000000, 0.0000000000000000000 ) ) ;
#309 =( GEOMETRIC_REPRESENTATION_CONTEXT ( 3 ) GLOBAL_UNCERTAINTY_ASSIGNED_CONTEXT ( ( #53 ) ) GLOBAL_UNIT_ASSIGNED_CONTEXT ( ( #81, #35, #305 ) ) REPRESENTATION_CONTEXT ( 'NONE', 'WORKASPACE' ) );
#310 = CARTESIAN_POINT ( 'NONE',  ( 37.98290598290599007, 0.0000000000000000000, 0.0000000000000000000 ) ) ;
#311 = AXIS2_PLACEMENT_3D ( 'NONE', #192, #284, #43 ) ;
#312 = EDGE_CURVE ( 'NONE', #11, #221, #274, .T. ) ;
#313 = DIRECTION ( 'NONE',  ( 0.0000000000000000000, 0.0000000000000000000, 1.000000000000000000 ) ) ;
#314 = CARTESIAN_POINT ( 'NONE',  ( -6.017094017094014369, 11.00000000000000000, 0.0000000000000000000 ) ) ;
ENDSEC;
END-ISO-10303-21;
