ISO-10303-21;
HEADER;
FILE_DESCRIPTION (( 'STEP AP214' ),
    '1' );
FILE_NAME ('BRM 20x8.step',
    '2020-09-08T10:23:00',
    ( '' ),
    ( '' ),
    'SwSTEP 2.0',
    'SolidWorks 2020',
    '' );
FILE_SCHEMA (( 'AUTOMOTIVE_DESIGN' ));
ENDSEC;

DATA;
#1 = CARTESIAN_POINT ( 'NONE',  ( -46.22222222222222143, 0.0000000000000000000, 22.50000000000000000 ) ) ;
#2 = DIRECTION ( 'NONE',  ( 0.0000000000000000000, 0.0000000000000000000, 1.000000000000000000 ) ) ;
#3 = CARTESIAN_POINT ( 'NONE',  ( 37.98290598290598297, 1.408343819019454007E-15, 11.49999999999998224 ) ) ;
#4 = AXIS2_PLACEMENT_3D ( 'NONE', #71, #31, #2 ) ;
#5 = SURFACE_SIDE_STYLE ('',( #228 ) ) ;
#6 = ADVANCED_FACE ( 'NONE', ( #118, #92 ), #267, .F. ) ;
#7 = DIRECTION ( 'NONE',  ( 0.0000000000000000000, 0.0000000000000000000, -1.000000000000000000 ) ) ;
#8 = LINE ( 'NONE', #277, #304 ) ;
#9 = EDGE_CURVE ( 'NONE', #81, #133, #290, .T. ) ;
#10 =( NAMED_UNIT ( * ) PLANE_ANGLE_UNIT ( ) SI_UNIT ( $, .RADIAN. ) );
#11 = CARTESIAN_POINT ( 'NONE',  ( 37.98290598290599007, 0.0000000000000000000, 22.50000000000000000 ) ) ;
#12 = VECTOR ( 'NONE', #273, 1000.000000000000114 ) ;
#13 =( GEOMETRIC_REPRESENTATION_CONTEXT ( 3 ) GLOBAL_UNCERTAINTY_ASSIGNED_CONTEXT ( ( #244 ) ) GLOBAL_UNIT_ASSIGNED_CONTEXT ( ( #102, #10, #181 ) ) REPRESENTATION_CONTEXT ( 'NONE', 'WORKASPACE' ) );
#14 = ORIENTED_EDGE ( 'NONE', *, *, #61, .F. ) ;
#15 = ORIENTED_EDGE ( 'NONE', *, *, #110, .T. ) ;
#16 = ORIENTED_EDGE ( 'NONE', *, *, #311, .F. ) ;
#17 = MECHANICAL_DESIGN_GEOMETRIC_PRESENTATION_REPRESENTATION (  '', ( #193 ), #13 ) ;
#18 = DIRECTION ( 'NONE',  ( 0.0000000000000000000, 0.0000000000000000000, -1.000000000000000000 ) ) ;
#19 = AXIS2_PLACEMENT_3D ( 'NONE', #97, #235, #7 ) ;
#20 = LINE ( 'NONE', #99, #307 ) ;
#21 = DIRECTION ( 'NONE',  ( 0.0000000000000000000, 0.0000000000000000000, 1.000000000000000000 ) ) ;
#22 = ADVANCED_FACE ( 'NONE', ( #270 ), #264, .F. ) ;
#23 = CYLINDRICAL_SURFACE ( 'NONE', #177, 22.50000000000000000 ) ;
#24 = FACE_OUTER_BOUND ( 'NONE', #189, .T. ) ;
#25 = CARTESIAN_POINT ( 'NONE',  ( 37.98290598290598297, 0.0000000000000000000, -11.49999999999998224 ) ) ;
#26 = DIRECTION ( 'NONE',  ( -1.000000000000000000, 0.0000000000000000000, 0.0000000000000000000 ) ) ;
#27 = EDGE_CURVE ( 'NONE', #260, #211, #174, .T. ) ;
#28 = SURFACE_STYLE_FILL_AREA ( #251 ) ;
#29 = LINE ( 'NONE', #227, #272 ) ;
#30 = DIRECTION ( 'NONE',  ( -1.000000000000000000, -0.0000000000000000000, -0.0000000000000000000 ) ) ;
#31 = DIRECTION ( 'NONE',  ( -1.000000000000000000, -0.0000000000000000000, -0.0000000000000000000 ) ) ;
#32 = FACE_OUTER_BOUND ( 'NONE', #66, .T. ) ;
#33 = DIRECTION ( 'NONE',  ( 1.000000000000000000, -0.0000000000000000000, -0.0000000000000000000 ) ) ;
#34 = ORIENTED_EDGE ( 'NONE', *, *, #247, .T. ) ;
#35 = AXIS2_PLACEMENT_3D ( 'NONE', #115, #243, #21 ) ;
#36 = VERTEX_POINT ( 'NONE', #245 ) ;
#37 = ADVANCED_FACE ( 'NONE', ( #41 ), #278, .F. ) ;
#38 = ORIENTED_EDGE ( 'NONE', *, *, #90, .F. ) ;
#39 = AXIS2_PLACEMENT_3D ( 'NONE', #130, #26, #157 ) ;
#40 = ORIENTED_EDGE ( 'NONE', *, *, #110, .F. ) ;
#41 = FACE_OUTER_BOUND ( 'NONE', #107, .T. ) ;
#42 = AXIS2_PLACEMENT_3D ( 'NONE', #146, #312, #87 ) ;
#43 = ORIENTED_EDGE ( 'NONE', *, *, #219, .F. ) ;
#44 = FACE_OUTER_BOUND ( 'NONE', #139, .T. ) ;
#45 = DIRECTION ( 'NONE',  ( 0.0000000000000000000, 0.0000000000000000000, 1.000000000000000000 ) ) ;
#46 = CONICAL_SURFACE ( 'NONE', #67, 11.00000000000000000, 0.7853981633974447263 ) ;
#47 = LINE ( 'NONE', #124, #12 ) ;
#48 =( NAMED_UNIT ( * ) SI_UNIT ( $, .STERADIAN. ) SOLID_ANGLE_UNIT ( ) );
#49 = DIRECTION ( 'NONE',  ( -1.000000000000000000, 0.0000000000000000000, 0.0000000000000000000 ) ) ;
#50 = CYLINDRICAL_SURFACE ( 'NONE', #59, 22.50000000000000000 ) ;
#51 =( LENGTH_UNIT ( ) NAMED_UNIT ( * ) SI_UNIT ( .MILLI., .METRE. ) );
#52 = VECTOR ( 'NONE', #271, 1000.000000000000000 ) ;
#53 = ADVANCED_FACE ( 'NONE', ( #218, #116 ), #147, .F. ) ;
#54 = DIRECTION ( 'NONE',  ( -1.000000000000000000, -0.0000000000000000000, -0.0000000000000000000 ) ) ;
#55 = CARTESIAN_POINT ( 'NONE',  ( -46.22222222222222143, 2.755455298081544778E-15, -22.50000000000000000 ) ) ;
#56 = ORIENTED_EDGE ( 'NONE', *, *, #120, .T. ) ;
#57 = ORIENTED_EDGE ( 'NONE', *, *, #247, .F. ) ;
#58 = CARTESIAN_POINT ( 'NONE',  ( 0.0000000000000000000, 0.0000000000000000000, 0.0000000000000000000 ) ) ;
#59 = AXIS2_PLACEMENT_3D ( 'NONE', #153, #30, #127 ) ;
#60 = ORIENTED_EDGE ( 'NONE', *, *, #224, .T. ) ;
#61 = EDGE_CURVE ( 'NONE', #211, #286, #167, .T. ) ;
#62 = VECTOR ( 'NONE', #75, 1000.000000000000000 ) ;
#63 = DIRECTION ( 'NONE',  ( 0.0000000000000000000, 0.0000000000000000000, 1.000000000000000000 ) ) ;
#64 = ORIENTED_EDGE ( 'NONE', *, *, #65, .T. ) ;
#65 = EDGE_CURVE ( 'NONE', #210, #117, #188, .T. ) ;
#66 = EDGE_LOOP ( 'NONE', ( #142, #60, #194, #40 ) ) ;
#67 = AXIS2_PLACEMENT_3D ( 'NONE', #191, #268, #143 ) ;
#68 = CARTESIAN_POINT ( 'NONE',  ( -6.017094017094014369, 11.00000000000000000, 0.0000000000000000000 ) ) ;
#69 = CARTESIAN_POINT ( 'NONE',  ( 37.98290598290598297, 22.50000000000000000, 0.0000000000000000000 ) ) ;
#70 = CARTESIAN_POINT ( 'NONE',  ( -6.017094017094014369, 0.0000000000000000000, 0.0000000000000000000 ) ) ;
#71 = CARTESIAN_POINT ( 'NONE',  ( 37.98290598290598297, 0.0000000000000000000, 0.0000000000000000000 ) ) ;
#72 = EDGE_CURVE ( 'NONE', #213, #221, #241, .T. ) ;
#73 = CONICAL_SURFACE ( 'NONE', #236, 11.49999999999998934, 0.7853981633974378429 ) ;
#74 = DIRECTION ( 'NONE',  ( 0.0000000000000000000, 0.0000000000000000000, -1.000000000000000000 ) ) ;
#75 = DIRECTION ( 'NONE',  ( -1.000000000000000000, -0.0000000000000000000, -0.0000000000000000000 ) ) ;
#76 = CARTESIAN_POINT ( 'NONE',  ( 37.98290598290599007, 2.755455298081544778E-15, -22.50000000000000000 ) ) ;
#77 = LINE ( 'NONE', #207, #62 ) ;
#78 = STYLED_ITEM ( 'NONE', ( #176 ), #313 ) ;
#79 = COLOUR_RGB ( '',0.7921568627450980005, 0.8196078431372548767, 0.9333333333333333481 ) ;
#80 = CARTESIAN_POINT ( 'NONE',  ( -6.017094017094014369, 0.0000000000000000000, 0.0000000000000000000 ) ) ;
#81 = VERTEX_POINT ( 'NONE', #289 ) ;
#82 = ADVANCED_FACE ( 'NONE', ( #149 ), #46, .F. ) ;
#83 =( GEOMETRIC_REPRESENTATION_CONTEXT ( 3 ) GLOBAL_UNCERTAINTY_ASSIGNED_CONTEXT ( ( #232 ) ) GLOBAL_UNIT_ASSIGNED_CONTEXT ( ( #183, #275, #233 ) ) REPRESENTATION_CONTEXT ( 'NONE', 'WORKASPACE' ) );
#84 = ADVANCED_BREP_SHAPE_REPRESENTATION ( 'BRM 20x8', ( #313, #145 ), #83 ) ;
#85 = EDGE_LOOP ( 'NONE', ( #162, #64 ) ) ;
#86 = ADVANCED_FACE ( 'NONE', ( #44 ), #23, .T. ) ;
#87 = DIRECTION ( 'NONE',  ( 0.0000000000000000000, 0.0000000000000000000, 1.000000000000000000 ) ) ;
#88 = AXIS2_PLACEMENT_3D ( 'NONE', #293, #248, #295 ) ;
#89 = DIRECTION ( 'NONE',  ( 0.0000000000000000000, 0.0000000000000000000, -1.000000000000000000 ) ) ;
#90 = EDGE_CURVE ( 'NONE', #133, #260, #20, .T. ) ;
#91 = ORIENTED_EDGE ( 'NONE', *, *, #27, .F. ) ;
#92 = FACE_OUTER_BOUND ( 'NONE', #166, .T. ) ;
#93 = AXIS2_PLACEMENT_3D ( 'NONE', #217, #308, #198 ) ;
#94 = DIRECTION ( 'NONE',  ( 0.0000000000000000000, 0.0000000000000000000, 1.000000000000000000 ) ) ;
#95 = DIRECTION ( 'NONE',  ( -1.000000000000000000, -0.0000000000000000000, -0.0000000000000000000 ) ) ;
#96 = LINE ( 'NONE', #1, #52 ) ;
#97 = CARTESIAN_POINT ( 'NONE',  ( 37.98290598290599007, 0.0000000000000000000, 0.0000000000000000000 ) ) ;
#98 = AXIS2_PLACEMENT_3D ( 'NONE', #122, #249, #314 ) ;
#99 = CARTESIAN_POINT ( 'NONE',  ( -46.22222222222222143, 1.347111479062088405E-15, -11.00000000000000000 ) ) ;
#100 = DIRECTION ( 'NONE',  ( 1.000000000000000000, 0.0000000000000000000, 0.0000000000000000000 ) ) ;
#101 = SURFACE_STYLE_USAGE ( .BOTH. , #5 ) ;
#102 =( LENGTH_UNIT ( ) NAMED_UNIT ( * ) SI_UNIT ( .MILLI., .METRE. ) );
#103 = VERTEX_POINT ( 'NONE', #201 ) ;
#104 = CARTESIAN_POINT ( 'NONE',  ( 37.98290598290599007, 0.0000000000000000000, 0.0000000000000000000 ) ) ;
#105 = ORIENTED_EDGE ( 'NONE', *, *, #196, .F. ) ;
#106 = ORIENTED_EDGE ( 'NONE', *, *, #27, .T. ) ;
#107 = EDGE_LOOP ( 'NONE', ( #303, #106, #184, #305 ) ) ;
#108 = ORIENTED_EDGE ( 'NONE', *, *, #172, .T. ) ;
#109 = CLOSED_SHELL ( 'NONE', ( #125, #37, #22, #300, #53, #86, #6, #165, #82, #240 ) ) ;
#110 = EDGE_CURVE ( 'NONE', #221, #36, #96, .T. ) ;
#111 = DIRECTION ( 'NONE',  ( 1.000000000000000000, 0.0000000000000000000, 0.0000000000000000000 ) ) ;
#112 = CARTESIAN_POINT ( 'NONE',  ( -46.22222222222222143, 0.0000000000000000000, 0.0000000000000000000 ) ) ;
#113 = AXIS2_PLACEMENT_3D ( 'NONE', #70, #175, #226 ) ;
#114 = PRESENTATION_LAYER_ASSIGNMENT (  '', '', ( #193 ) ) ;
#115 = CARTESIAN_POINT ( 'NONE',  ( -5.517094017094013481, 0.0000000000000000000, 0.0000000000000000000 ) ) ;
#116 = FACE_OUTER_BOUND ( 'NONE', #186, .T. ) ;
#117 = VERTEX_POINT ( 'NONE', #25 ) ;
#118 = FACE_BOUND ( 'NONE', #85, .T. ) ;
#119 = MECHANICAL_DESIGN_GEOMETRIC_PRESENTATION_REPRESENTATION (  '', ( #78 ), #164 ) ;
#120 = EDGE_CURVE ( 'NONE', #258, #286, #47, .T. ) ;
#121 = CARTESIAN_POINT ( 'NONE',  ( 37.98290598290599007, 0.0000000000000000000, 0.0000000000000000000 ) ) ;
#122 = CARTESIAN_POINT ( 'NONE',  ( -6.017094017094014369, 0.0000000000000000000, 0.0000000000000000000 ) ) ;
#123 = PRESENTATION_STYLE_ASSIGNMENT (( #255 ) ) ;
#124 = CARTESIAN_POINT ( 'NONE',  ( -5.517094017094013481, 0.0000000000000000000, 11.00000000000000000 ) ) ;
#125 = ADVANCED_FACE ( 'NONE', ( #24 ), #73, .F. ) ;
#126 = PRODUCT_DEFINITION_SHAPE ( 'NONE', 'NONE',  #159 ) ;
#127 = DIRECTION ( 'NONE',  ( 0.0000000000000000000, 0.0000000000000000000, 1.000000000000000000 ) ) ;
#128 = AXIS2_PLACEMENT_3D ( 'NONE', #291, #173, #45 ) ;
#129 = CIRCLE ( 'NONE', #4, 11.49999999999998224 ) ;
#130 = CARTESIAN_POINT ( 'NONE',  ( -5.517094017094013481, 0.0000000000000000000, 0.0000000000000000000 ) ) ;
#131 = SURFACE_SIDE_STYLE ('',( #28 ) ) ;
#132 = DIRECTION ( 'NONE',  ( 0.7071067811865549002, 8.659560562354844111E-17, 0.7071067811865401342 ) ) ;
#133 = VERTEX_POINT ( 'NONE', #178 ) ;
#134 = CARTESIAN_POINT ( 'NONE',  ( -5.517094017094013481, 0.0000000000000000000, 11.00000000000000000 ) ) ;
#135 = ORIENTED_EDGE ( 'NONE', *, *, #187, .T. ) ;
#136 = AXIS2_PLACEMENT_3D ( 'NONE', #80, #54, #253 ) ;
#137 = ORIENTED_EDGE ( 'NONE', *, *, #196, .T. ) ;
#138 = ORIENTED_EDGE ( 'NONE', *, *, #231, .F. ) ;
#139 = EDGE_LOOP ( 'NONE', ( #285, #306, #15, #43 ) ) ;
#140 = AXIS2_PLACEMENT_3D ( 'NONE', #69, #197, #169 ) ;
#141 = ORIENTED_EDGE ( 'NONE', *, *, #219, .T. ) ;
#142 = ORIENTED_EDGE ( 'NONE', *, *, #261, .T. ) ;
#143 = DIRECTION ( 'NONE',  ( 0.0000000000000000000, 0.0000000000000000000, 1.000000000000000000 ) ) ;
#144 = CIRCLE ( 'NONE', #265, 11.00000000000000000 ) ;
#145 = AXIS2_PLACEMENT_3D ( 'NONE', #58, #161, #100 ) ;
#146 = CARTESIAN_POINT ( 'NONE',  ( 37.48290598290599007, 0.0000000000000000000, 0.0000000000000000000 ) ) ;
#147 = PLANE ( 'NONE',  #150 ) ;
#148 = UNCERTAINTY_MEASURE_WITH_UNIT (LENGTH_MEASURE( 1.000000000000000082E-05 ), #51, 'distance_accuracy_value', 'NONE');
#149 = FACE_OUTER_BOUND ( 'NONE', #202, .T. ) ;
#150 = AXIS2_PLACEMENT_3D ( 'NONE', #68, #111, #18 ) ;
#151 = FACE_OUTER_BOUND ( 'NONE', #212, .T. ) ;
#152 = DIRECTION ( 'NONE',  ( 0.0000000000000000000, 0.0000000000000000000, -1.000000000000000000 ) ) ;
#153 = CARTESIAN_POINT ( 'NONE',  ( -46.22222222222222143, 0.0000000000000000000, 0.0000000000000000000 ) ) ;
#154 = FILL_AREA_STYLE_COLOUR ( '', #79 ) ;
#155 = APPLICATION_PROTOCOL_DEFINITION ( 'draft international standard', 'automotive_design', 1998, #215 ) ;
#156 = FILL_AREA_STYLE ('',( #230 ) ) ;
#157 = DIRECTION ( 'NONE',  ( 0.0000000000000000000, 0.0000000000000000000, -1.000000000000000000 ) ) ;
#158 = FACE_OUTER_BOUND ( 'NONE', #263, .T. ) ;
#159 = PRODUCT_DEFINITION ( 'UNKNOWN', '', #209, #302 ) ;
#160 = ORIENTED_EDGE ( 'NONE', *, *, #65, .F. ) ;
#161 = DIRECTION ( 'NONE',  ( 0.0000000000000000000, 0.0000000000000000000, 1.000000000000000000 ) ) ;
#162 = ORIENTED_EDGE ( 'NONE', *, *, #231, .T. ) ;
#163 = CIRCLE ( 'NONE', #136, 22.50000000000000000 ) ;
#164 =( GEOMETRIC_REPRESENTATION_CONTEXT ( 3 ) GLOBAL_UNCERTAINTY_ASSIGNED_CONTEXT ( ( #148 ) ) GLOBAL_UNIT_ASSIGNED_CONTEXT ( ( #51, #299, #48 ) ) REPRESENTATION_CONTEXT ( 'NONE', 'WORKASPACE' ) );
#165 = ADVANCED_FACE ( 'NONE', ( #151 ), #298, .F. ) ;
#166 = EDGE_LOOP ( 'NONE', ( #237, #280 ) ) ;
#167 = CIRCLE ( 'NONE', #229, 11.49999999999999645 ) ;
#168 = ORIENTED_EDGE ( 'NONE', *, *, #9, .T. ) ;
#169 = DIRECTION ( 'NONE',  ( -0.0000000000000000000, 0.0000000000000000000, 1.000000000000000000 ) ) ;
#170 = ORIENTED_EDGE ( 'NONE', *, *, #9, .F. ) ;
#171 = VECTOR ( 'NONE', #288, 1000.000000000000114 ) ;
#172 = EDGE_CURVE ( 'NONE', #258, #260, #144, .T. ) ;
#173 = DIRECTION ( 'NONE',  ( -1.000000000000000000, -0.0000000000000000000, -0.0000000000000000000 ) ) ;
#174 = LINE ( 'NONE', #239, #171 ) ;
#175 = DIRECTION ( 'NONE',  ( 1.000000000000000000, 0.0000000000000000000, 0.0000000000000000000 ) ) ;
#176 = PRESENTATION_STYLE_ASSIGNMENT (( #101 ) ) ;
#177 = AXIS2_PLACEMENT_3D ( 'NONE', #112, #287, #63 ) ;
#178 = CARTESIAN_POINT ( 'NONE',  ( 37.48290598290599007, 1.347111479062088405E-15, -11.00000000000000000 ) ) ;
#179 = CARTESIAN_POINT ( 'NONE',  ( -5.517094017094013481, 1.347111479062088405E-15, -11.00000000000000000 ) ) ;
#180 = PRODUCT ( 'BRM 20x8', 'BRM 20x8', '', ( #206 ) ) ;
#181 =( NAMED_UNIT ( * ) SI_UNIT ( $, .STERADIAN. ) SOLID_ANGLE_UNIT ( ) );
#182 = CIRCLE ( 'NONE', #98, 22.50000000000000000 ) ;
#183 =( LENGTH_UNIT ( ) NAMED_UNIT ( * ) SI_UNIT ( .MILLI., .METRE. ) );
#184 = ORIENTED_EDGE ( 'NONE', *, *, #214, .F. ) ;
#185 = ORIENTED_EDGE ( 'NONE', *, *, #283, .F. ) ;
#186 = EDGE_LOOP ( 'NONE', ( #135, #141 ) ) ;
#187 = EDGE_CURVE ( 'NONE', #36, #103, #182, .T. ) ;
#188 = CIRCLE ( 'NONE', #190, 11.49999999999998224 ) ;
#189 = EDGE_LOOP ( 'NONE', ( #170, #282, #138, #105 ) ) ;
#190 = AXIS2_PLACEMENT_3D ( 'NONE', #309, #292, #94 ) ;
#191 = CARTESIAN_POINT ( 'NONE',  ( -5.517094017094013481, 0.0000000000000000000, 0.0000000000000000000 ) ) ;
#192 = PRODUCT_RELATED_PRODUCT_CATEGORY ( 'part', '', ( #180 ) ) ;
#193 = STYLED_ITEM ( 'NONE', ( #123 ), #84 ) ;
#194 = ORIENTED_EDGE ( 'NONE', *, *, #187, .F. ) ;
#195 = ORIENTED_EDGE ( 'NONE', *, *, #214, .T. ) ;
#196 = EDGE_CURVE ( 'NONE', #133, #117, #29, .T. ) ;
#197 = DIRECTION ( 'NONE',  ( -1.000000000000000000, 0.0000000000000000000, -0.0000000000000000000 ) ) ;
#198 = DIRECTION ( 'NONE',  ( 0.0000000000000000000, 0.0000000000000000000, 1.000000000000000000 ) ) ;
#199 = APPLICATION_CONTEXT ( 'automotive_design' ) ;
#200 = CARTESIAN_POINT ( 'NONE',  ( -6.017094017094014369, 1.408343819019455781E-15, -11.49999999999999645 ) ) ;
#201 = CARTESIAN_POINT ( 'NONE',  ( -6.017094017094014369, 2.755455298081544778E-15, -22.50000000000000000 ) ) ;
#202 = EDGE_LOOP ( 'NONE', ( #91, #242, #56, #14 ) ) ;
#203 = CARTESIAN_POINT ( 'NONE',  ( 37.48290598290599007, 0.0000000000000000000, 0.0000000000000000000 ) ) ;
#204 = CIRCLE ( 'NONE', #222, 22.50000000000000000 ) ;
#205 = CARTESIAN_POINT ( 'NONE',  ( -5.517094017094013481, 0.0000000000000000000, 0.0000000000000000000 ) ) ;
#206 = PRODUCT_CONTEXT ( 'NONE', #199, 'mechanical' ) ;
#207 = CARTESIAN_POINT ( 'NONE',  ( -46.22222222222222143, 0.0000000000000000000, 11.00000000000000000 ) ) ;
#208 = AXIS2_PLACEMENT_3D ( 'NONE', #203, #33, #297 ) ;
#209 = PRODUCT_DEFINITION_FORMATION_WITH_SPECIFIED_SOURCE ( 'ANY', '', #180, .NOT_KNOWN. ) ;
#210 = VERTEX_POINT ( 'NONE', #3 ) ;
#211 = VERTEX_POINT ( 'NONE', #200 ) ;
#212 = EDGE_LOOP ( 'NONE', ( #38, #34, #301, #108 ) ) ;
#213 = VERTEX_POINT ( 'NONE', #76 ) ;
#214 = EDGE_CURVE ( 'NONE', #286, #211, #259, .T. ) ;
#215 = APPLICATION_CONTEXT ( 'automotive_design' ) ;
#216 = ORIENTED_EDGE ( 'NONE', *, *, #61, .T. ) ;
#217 = CARTESIAN_POINT ( 'NONE',  ( -46.22222222222222143, 0.0000000000000000000, 0.0000000000000000000 ) ) ;
#218 = FACE_BOUND ( 'NONE', #279, .T. ) ;
#219 = EDGE_CURVE ( 'NONE', #103, #36, #163, .T. ) ;
#220 = CARTESIAN_POINT ( 'NONE',  ( -6.017094017094014369, 0.0000000000000000000, 0.0000000000000000000 ) ) ;
#221 = VERTEX_POINT ( 'NONE', #11 ) ;
#222 = AXIS2_PLACEMENT_3D ( 'NONE', #104, #256, #274 ) ;
#223 = DIRECTION ( 'NONE',  ( 1.000000000000000000, -0.0000000000000000000, -0.0000000000000000000 ) ) ;
#224 = EDGE_CURVE ( 'NONE', #213, #103, #250, .T. ) ;
#225 = DIRECTION ( 'NONE',  ( 0.7071067811865549002, 0.0000000000000000000, -0.7071067811865401342 ) ) ;
#226 = DIRECTION ( 'NONE',  ( 0.0000000000000000000, 0.0000000000000000000, -1.000000000000000000 ) ) ;
#227 = CARTESIAN_POINT ( 'NONE',  ( 37.98290598290599007, 0.0000000000000000000, -11.49999999999998934 ) ) ;
#228 = SURFACE_STYLE_FILL_AREA ( #156 ) ;
#229 = AXIS2_PLACEMENT_3D ( 'NONE', #220, #310, #89 ) ;
#230 = FILL_AREA_STYLE_COLOUR ( '', #254 ) ;
#231 = EDGE_CURVE ( 'NONE', #117, #210, #129, .T. ) ;
#232 = UNCERTAINTY_MEASURE_WITH_UNIT (LENGTH_MEASURE( 1.000000000000000082E-05 ), #183, 'distance_accuracy_value', 'NONE');
#233 =( NAMED_UNIT ( * ) SI_UNIT ( $, .STERADIAN. ) SOLID_ANGLE_UNIT ( ) );
#234 = ORIENTED_EDGE ( 'NONE', *, *, #90, .T. ) ;
#235 = DIRECTION ( 'NONE',  ( 1.000000000000000000, -0.0000000000000000000, -0.0000000000000000000 ) ) ;
#236 = AXIS2_PLACEMENT_3D ( 'NONE', #121, #223, #74 ) ;
#237 = ORIENTED_EDGE ( 'NONE', *, *, #261, .F. ) ;
#238 = CIRCLE ( 'NONE', #208, 11.00000000000000000 ) ;
#239 = CARTESIAN_POINT ( 'NONE',  ( -5.517094017094013481, 1.347111479062088405E-15, -11.00000000000000000 ) ) ;
#240 = ADVANCED_FACE ( 'NONE', ( #158 ), #296, .F. ) ;
#241 = CIRCLE ( 'NONE', #128, 22.50000000000000000 ) ;
#242 = ORIENTED_EDGE ( 'NONE', *, *, #172, .F. ) ;
#243 = DIRECTION ( 'NONE',  ( -1.000000000000000000, 0.0000000000000000000, 0.0000000000000000000 ) ) ;
#244 = UNCERTAINTY_MEASURE_WITH_UNIT (LENGTH_MEASURE( 1.000000000000000082E-05 ), #102, 'distance_accuracy_value', 'NONE');
#245 = CARTESIAN_POINT ( 'NONE',  ( -6.017094017094014369, 0.0000000000000000000, 22.50000000000000000 ) ) ;
#246 = EDGE_LOOP ( 'NONE', ( #168, #234, #269, #185 ) ) ;
#247 = EDGE_CURVE ( 'NONE', #133, #81, #238, .T. ) ;
#248 = DIRECTION ( 'NONE',  ( -1.000000000000000000, -0.0000000000000000000, -0.0000000000000000000 ) ) ;
#249 = DIRECTION ( 'NONE',  ( -1.000000000000000000, -0.0000000000000000000, -0.0000000000000000000 ) ) ;
#250 = LINE ( 'NONE', #55, #284 ) ;
#251 = FILL_AREA_STYLE ('',( #154 ) ) ;
#252 = EDGE_CURVE ( 'NONE', #260, #258, #266, .T. ) ;
#253 = DIRECTION ( 'NONE',  ( 0.0000000000000000000, 0.0000000000000000000, 1.000000000000000000 ) ) ;
#254 = COLOUR_RGB ( '',0.7921568627450980005, 0.8196078431372548767, 0.9333333333333333481 ) ;
#255 = SURFACE_STYLE_USAGE ( .BOTH. , #131 ) ;
#256 = DIRECTION ( 'NONE',  ( -1.000000000000000000, -0.0000000000000000000, -0.0000000000000000000 ) ) ;
#257 = DIRECTION ( 'NONE',  ( -1.000000000000000000, -0.0000000000000000000, -0.0000000000000000000 ) ) ;
#258 = VERTEX_POINT ( 'NONE', #134 ) ;
#259 = CIRCLE ( 'NONE', #113, 11.49999999999999645 ) ;
#260 = VERTEX_POINT ( 'NONE', #179 ) ;
#261 = EDGE_CURVE ( 'NONE', #221, #213, #204, .T. ) ;
#262 = PRESENTATION_LAYER_ASSIGNMENT (  '', '', ( #78 ) ) ;
#263 = EDGE_LOOP ( 'NONE', ( #16, #57, #137, #160 ) ) ;
#264 = CYLINDRICAL_SURFACE ( 'NONE', #93, 11.00000000000000000 ) ;
#265 = AXIS2_PLACEMENT_3D ( 'NONE', #205, #49, #152 ) ;
#266 = CIRCLE ( 'NONE', #39, 11.00000000000000000 ) ;
#267 = PLANE ( 'NONE',  #140 ) ;
#268 = DIRECTION ( 'NONE',  ( -1.000000000000000000, 0.0000000000000000000, 0.0000000000000000000 ) ) ;
#269 = ORIENTED_EDGE ( 'NONE', *, *, #252, .T. ) ;
#270 = FACE_OUTER_BOUND ( 'NONE', #246, .T. ) ;
#271 = DIRECTION ( 'NONE',  ( -1.000000000000000000, -0.0000000000000000000, -0.0000000000000000000 ) ) ;
#272 = VECTOR ( 'NONE', #225, 1000.000000000000000 ) ;
#273 = DIRECTION ( 'NONE',  ( -0.7071067811865500152, 0.0000000000000000000, 0.7071067811865451302 ) ) ;
#274 = DIRECTION ( 'NONE',  ( 0.0000000000000000000, 0.0000000000000000000, 1.000000000000000000 ) ) ;
#275 =( NAMED_UNIT ( * ) PLANE_ANGLE_UNIT ( ) SI_UNIT ( $, .RADIAN. ) );
#276 = APPLICATION_PROTOCOL_DEFINITION ( 'draft international standard', 'automotive_design', 1998, #199 ) ;
#277 = CARTESIAN_POINT ( 'NONE',  ( 37.98290598290599007, 1.408343819019454795E-15, 11.49999999999998934 ) ) ;
#278 = CONICAL_SURFACE ( 'NONE', #35, 11.00000000000000000, 0.7853981633974447263 ) ;
#279 = EDGE_LOOP ( 'NONE', ( #195, #216 ) ) ;
#280 = ORIENTED_EDGE ( 'NONE', *, *, #72, .F. ) ;
#281 = SHAPE_DEFINITION_REPRESENTATION ( #126, #84 ) ;
#282 = ORIENTED_EDGE ( 'NONE', *, *, #311, .T. ) ;
#283 = EDGE_CURVE ( 'NONE', #81, #258, #77, .T. ) ;
#284 = VECTOR ( 'NONE', #257, 1000.000000000000000 ) ;
#285 = ORIENTED_EDGE ( 'NONE', *, *, #224, .F. ) ;
#286 = VERTEX_POINT ( 'NONE', #294 ) ;
#287 = DIRECTION ( 'NONE',  ( -1.000000000000000000, -0.0000000000000000000, -0.0000000000000000000 ) ) ;
#288 = DIRECTION ( 'NONE',  ( -0.7071067811865500152, 8.659560562354903276E-17, -0.7071067811865451302 ) ) ;
#289 = CARTESIAN_POINT ( 'NONE',  ( 37.48290598290599007, 0.0000000000000000000, 11.00000000000000000 ) ) ;
#290 = CIRCLE ( 'NONE', #42, 11.00000000000000000 ) ;
#291 = CARTESIAN_POINT ( 'NONE',  ( 37.98290598290599007, 0.0000000000000000000, 0.0000000000000000000 ) ) ;
#292 = DIRECTION ( 'NONE',  ( -1.000000000000000000, -0.0000000000000000000, -0.0000000000000000000 ) ) ;
#293 = CARTESIAN_POINT ( 'NONE',  ( -46.22222222222222143, 0.0000000000000000000, 0.0000000000000000000 ) ) ;
#294 = CARTESIAN_POINT ( 'NONE',  ( -6.017094017094014369, 0.0000000000000000000, 11.49999999999999645 ) ) ;
#295 = DIRECTION ( 'NONE',  ( 0.0000000000000000000, 0.0000000000000000000, 1.000000000000000000 ) ) ;
#296 = CONICAL_SURFACE ( 'NONE', #19, 11.49999999999998934, 0.7853981633974378429 ) ;
#297 = DIRECTION ( 'NONE',  ( 0.0000000000000000000, 0.0000000000000000000, 1.000000000000000000 ) ) ;
#298 = CYLINDRICAL_SURFACE ( 'NONE', #88, 11.00000000000000000 ) ;
#299 =( NAMED_UNIT ( * ) PLANE_ANGLE_UNIT ( ) SI_UNIT ( $, .RADIAN. ) );
#300 = ADVANCED_FACE ( 'NONE', ( #32 ), #50, .T. ) ;
#301 = ORIENTED_EDGE ( 'NONE', *, *, #283, .T. ) ;
#302 = PRODUCT_DEFINITION_CONTEXT ( 'detailed design', #215, 'design' ) ;
#303 = ORIENTED_EDGE ( 'NONE', *, *, #252, .F. ) ;
#304 = VECTOR ( 'NONE', #132, 1000.000000000000000 ) ;
#305 = ORIENTED_EDGE ( 'NONE', *, *, #120, .F. ) ;
#306 = ORIENTED_EDGE ( 'NONE', *, *, #72, .T. ) ;
#307 = VECTOR ( 'NONE', #95, 1000.000000000000000 ) ;
#308 = DIRECTION ( 'NONE',  ( -1.000000000000000000, -0.0000000000000000000, -0.0000000000000000000 ) ) ;
#309 = CARTESIAN_POINT ( 'NONE',  ( 37.98290598290598297, 0.0000000000000000000, 0.0000000000000000000 ) ) ;
#310 = DIRECTION ( 'NONE',  ( 1.000000000000000000, 0.0000000000000000000, 0.0000000000000000000 ) ) ;
#311 = EDGE_CURVE ( 'NONE', #81, #210, #8, .T. ) ;
#312 = DIRECTION ( 'NONE',  ( 1.000000000000000000, -0.0000000000000000000, -0.0000000000000000000 ) ) ;
#313 = MANIFOLD_SOLID_BREP ( 'Chamfer1', #109 ) ;
#314 = DIRECTION ( 'NONE',  ( 0.0000000000000000000, 0.0000000000000000000, 1.000000000000000000 ) ) ;
ENDSEC;
END-ISO-10303-21;
