ISO-10303-21;
HEADER;
FILE_DESCRIPTION (( 'STEP AP214' ),
    '1' );
FILE_NAME ('BRM 14x4.step',
    '2020-09-08T10:22:32',
    ( '' ),
    ( '' ),
    'SwSTEP 2.0',
    'SolidWorks 2020',
    '' );
FILE_SCHEMA (( 'AUTOMOTIVE_DESIGN' ));
ENDSEC;

DATA;
#1 = DIRECTION ( 'NONE',  ( 0.0000000000000000000, 0.0000000000000000000, 1.000000000000000000 ) ) ;
#2 = ADVANCED_FACE ( 'NONE', ( #305 ), #214, .F. ) ;
#3 = AXIS2_PLACEMENT_3D ( 'NONE', #223, #12, #198 ) ;
#4 = CARTESIAN_POINT ( 'NONE',  ( -46.22222222222222143, 0.0000000000000000000, 0.0000000000000000000 ) ) ;
#5 = DIRECTION ( 'NONE',  ( 1.000000000000000000, 0.0000000000000000000, 0.0000000000000000000 ) ) ;
#6 = CYLINDRICAL_SURFACE ( 'NONE', #120, 8.000000000000000000 ) ;
#7 = UNCERTAINTY_MEASURE_WITH_UNIT (LENGTH_MEASURE( 1.000000000000000082E-05 ), #32, 'distance_accuracy_value', 'NONE');
#8 = AXIS2_PLACEMENT_3D ( 'NONE', #81, #226, #84 ) ;
#9 = DIRECTION ( 'NONE',  ( 0.0000000000000000000, 0.0000000000000000000, 1.000000000000000000 ) ) ;
#10 = FILL_AREA_STYLE ('',( #101 ) ) ;
#11 = ORIENTED_EDGE ( 'NONE', *, *, #41, .F. ) ;
#12 = DIRECTION ( 'NONE',  ( -1.000000000000000000, -0.0000000000000000000, -0.0000000000000000000 ) ) ;
#13 = CARTESIAN_POINT ( 'NONE',  ( -5.517094017094007263, 9.797174393178825657E-16, -8.000000000000000000 ) ) ;
#14 = EDGE_CURVE ( 'NONE', #228, #179, #64, .T. ) ;
#15 = CARTESIAN_POINT ( 'NONE',  ( -5.517094017094007263, 0.0000000000000000000, 0.0000000000000000000 ) ) ;
#16 = AXIS2_PLACEMENT_3D ( 'NONE', #287, #98, #145 ) ;
#17 = ORIENTED_EDGE ( 'NONE', *, *, #154, .F. ) ;
#18 = EDGE_LOOP ( 'NONE', ( #87, #61, #140, #17 ) ) ;
#19 = ORIENTED_EDGE ( 'NONE', *, *, #14, .F. ) ;
#20 = ORIENTED_EDGE ( 'NONE', *, *, #309, .F. ) ;
#21 = CONICAL_SURFACE ( 'NONE', #99, 8.000000000000000000, 0.7853981633974482790 ) ;
#22 = ORIENTED_EDGE ( 'NONE', *, *, #176, .T. ) ;
#23 = LINE ( 'NONE', #187, #303 ) ;
#24 = AXIS2_PLACEMENT_3D ( 'NONE', #95, #50, #124 ) ;
#25 = DIRECTION ( 'NONE',  ( -1.000000000000000000, -0.0000000000000000000, -0.0000000000000000000 ) ) ;
#26 = CARTESIAN_POINT ( 'NONE',  ( -6.017094017094014369, 0.0000000000000000000, 18.00000000000000000 ) ) ;
#27 = CARTESIAN_POINT ( 'NONE',  ( 25.98290598290597941, 2.204364238465235428E-15, -18.00000000000000000 ) ) ;
#28 = CIRCLE ( 'NONE', #190, 8.000000000000000000 ) ;
#29 = FACE_OUTER_BOUND ( 'NONE', #160, .T. ) ;
#30 = EDGE_CURVE ( 'NONE', #42, #134, #240, .T. ) ;
#31 = DIRECTION ( 'NONE',  ( 0.0000000000000000000, 0.0000000000000000000, 1.000000000000000000 ) ) ;
#32 =( LENGTH_UNIT ( ) NAMED_UNIT ( * ) SI_UNIT ( .MILLI., .METRE. ) );
#33 = FACE_OUTER_BOUND ( 'NONE', #65, .T. ) ;
#34 = EDGE_CURVE ( 'NONE', #280, #43, #119, .T. ) ;
#35 = PLANE ( 'NONE',  #265 ) ;
#36 = DIRECTION ( 'NONE',  ( 1.000000000000000000, -0.0000000000000000000, -0.0000000000000000000 ) ) ;
#37 = ORIENTED_EDGE ( 'NONE', *, *, #279, .F. ) ;
#38 = VECTOR ( 'NONE', #103, 1000.000000000000000 ) ;
#39 = VERTEX_POINT ( 'NONE', #215 ) ;
#40 = APPLICATION_CONTEXT ( 'automotive_design' ) ;
#41 = EDGE_CURVE ( 'NONE', #39, #67, #23, .T. ) ;
#42 = VERTEX_POINT ( 'NONE', #123 ) ;
#43 = VERTEX_POINT ( 'NONE', #26 ) ;
#44 = ADVANCED_FACE ( 'NONE', ( #167, #97 ), #314, .F. ) ;
#45 = ORIENTED_EDGE ( 'NONE', *, *, #48, .T. ) ;
#46 = DIRECTION ( 'NONE',  ( 1.000000000000000000, -0.0000000000000000000, -0.0000000000000000000 ) ) ;
#47 =( NAMED_UNIT ( * ) PLANE_ANGLE_UNIT ( ) SI_UNIT ( $, .RADIAN. ) );
#48 = EDGE_CURVE ( 'NONE', #248, #235, #308, .T. ) ;
#49 = CARTESIAN_POINT ( 'NONE',  ( -5.517094017094007263, 0.0000000000000000000, 0.0000000000000000000 ) ) ;
#50 = DIRECTION ( 'NONE',  ( 1.000000000000000000, 0.0000000000000000000, 0.0000000000000000000 ) ) ;
#51 = FACE_OUTER_BOUND ( 'NONE', #18, .T. ) ;
#52 = CARTESIAN_POINT ( 'NONE',  ( 0.0000000000000000000, 0.0000000000000000000, 0.0000000000000000000 ) ) ;
#53 = ORIENTED_EDGE ( 'NONE', *, *, #121, .T. ) ;
#54 = CIRCLE ( 'NONE', #16, 8.500000000000007105 ) ;
#55 = DIRECTION ( 'NONE',  ( -1.000000000000000000, -0.0000000000000000000, -0.0000000000000000000 ) ) ;
#56 = PRODUCT_CONTEXT ( 'NONE', #40, 'mechanical' ) ;
#57 = DIRECTION ( 'NONE',  ( -1.000000000000000000, -0.0000000000000000000, -0.0000000000000000000 ) ) ;
#58 = DIRECTION ( 'NONE',  ( -1.000000000000000000, -0.0000000000000000000, -0.0000000000000000000 ) ) ;
#59 = VECTOR ( 'NONE', #69, 1000.000000000000000 ) ;
#60 = CARTESIAN_POINT ( 'NONE',  ( -6.017094017094014369, 0.0000000000000000000, 0.0000000000000000000 ) ) ;
#61 = ORIENTED_EDGE ( 'NONE', *, *, #48, .F. ) ;
#62 = EDGE_LOOP ( 'NONE', ( #307, #257, #304, #11 ) ) ;
#63 = CIRCLE ( 'NONE', #278, 8.000000000000000000 ) ;
#64 = LINE ( 'NONE', #191, #288 ) ;
#65 = EDGE_LOOP ( 'NONE', ( #91, #53, #113, #115 ) ) ;
#66 = EDGE_CURVE ( 'NONE', #179, #67, #283, .T. ) ;
#67 = VERTEX_POINT ( 'NONE', #290 ) ;
#68 = AXIS2_PLACEMENT_3D ( 'NONE', #268, #46, #188 ) ;
#69 = DIRECTION ( 'NONE',  ( -1.000000000000000000, -0.0000000000000000000, -0.0000000000000000000 ) ) ;
#70 = APPLICATION_CONTEXT ( 'automotive_design' ) ;
#71 = DIRECTION ( 'NONE',  ( -0.7071067811865474617, 0.0000000000000000000, 0.7071067811865474617 ) ) ;
#72 = EDGE_CURVE ( 'NONE', #235, #134, #186, .T. ) ;
#73 = CARTESIAN_POINT ( 'NONE',  ( -46.22222222222222143, 9.797174393178825657E-16, -8.000000000000000000 ) ) ;
#74 = AXIS2_PLACEMENT_3D ( 'NONE', #177, #57, #31 ) ;
#75 = CARTESIAN_POINT ( 'NONE',  ( -46.22222222222222143, 0.0000000000000000000, 18.00000000000000000 ) ) ;
#76 = CARTESIAN_POINT ( 'NONE',  ( -5.517094017094007263, 0.0000000000000000000, 0.0000000000000000000 ) ) ;
#77 = PRESENTATION_LAYER_ASSIGNMENT (  '', '', ( #111 ) ) ;
#78 = CIRCLE ( 'NONE', #126, 18.00000000000000000 ) ;
#79 = DIRECTION ( 'NONE',  ( -1.000000000000000000, -0.0000000000000000000, -0.0000000000000000000 ) ) ;
#80 = CARTESIAN_POINT ( 'NONE',  ( 25.98290598290598652, 18.00000000000000000, 0.0000000000000000000 ) ) ;
#81 = CARTESIAN_POINT ( 'NONE',  ( 25.98290598290597941, 0.0000000000000000000, 0.0000000000000000000 ) ) ;
#82 = DIRECTION ( 'NONE',  ( -1.000000000000000000, -0.0000000000000000000, -0.0000000000000000000 ) ) ;
#83 = AXIS2_PLACEMENT_3D ( 'NONE', #291, #25, #294 ) ;
#84 = DIRECTION ( 'NONE',  ( 0.0000000000000000000, 0.0000000000000000000, -1.000000000000000000 ) ) ;
#85 = EDGE_CURVE ( 'NONE', #67, #179, #54, .T. ) ;
#86 = ORIENTED_EDGE ( 'NONE', *, *, #90, .F. ) ;
#87 = ORIENTED_EDGE ( 'NONE', *, *, #72, .F. ) ;
#88 = AXIS2_PLACEMENT_3D ( 'NONE', #155, #82, #105 ) ;
#89 = EDGE_LOOP ( 'NONE', ( #204, #261 ) ) ;
#90 = EDGE_CURVE ( 'NONE', #235, #248, #28, .T. ) ;
#91 = ORIENTED_EDGE ( 'NONE', *, *, #90, .T. ) ;
#92 = UNCERTAINTY_MEASURE_WITH_UNIT (LENGTH_MEASURE( 1.000000000000000082E-05 ), #163, 'distance_accuracy_value', 'NONE');
#93 = DIRECTION ( 'NONE',  ( 1.000000000000000000, 0.0000000000000000000, 0.0000000000000000000 ) ) ;
#94 = CARTESIAN_POINT ( 'NONE',  ( -6.017094017094014369, 8.000000000000000000, 0.0000000000000000000 ) ) ;
#95 = CARTESIAN_POINT ( 'NONE',  ( -6.017094017094014369, 0.0000000000000000000, 0.0000000000000000000 ) ) ;
#96 = PRODUCT_DEFINITION_FORMATION_WITH_SPECIFIED_SOURCE ( 'ANY', '', #221, .NOT_KNOWN. ) ;
#97 = FACE_OUTER_BOUND ( 'NONE', #89, .T. ) ;
#98 = DIRECTION ( 'NONE',  ( 1.000000000000000000, 0.0000000000000000000, 0.0000000000000000000 ) ) ;
#99 = AXIS2_PLACEMENT_3D ( 'NONE', #76, #218, #194 ) ;
#100 = FACE_OUTER_BOUND ( 'NONE', #254, .T. ) ;
#101 = FILL_AREA_STYLE_COLOUR ( '', #208 ) ;
#102 = FACE_OUTER_BOUND ( 'NONE', #206, .T. ) ;
#103 = DIRECTION ( 'NONE',  ( -1.000000000000000000, -0.0000000000000000000, -0.0000000000000000000 ) ) ;
#104 = PRESENTATION_STYLE_ASSIGNMENT (( #250 ) ) ;
#105 = DIRECTION ( 'NONE',  ( 0.0000000000000000000, 0.0000000000000000000, 1.000000000000000000 ) ) ;
#106 = MANIFOLD_SOLID_BREP ( 'Chamfer1', #147 ) ;
#107 = DIRECTION ( 'NONE',  ( -1.000000000000000000, -0.0000000000000000000, -0.0000000000000000000 ) ) ;
#108 = DIRECTION ( 'NONE',  ( -1.000000000000000000, 0.0000000000000000000, 0.0000000000000000000 ) ) ;
#109 = ORIENTED_EDGE ( 'NONE', *, *, #85, .T. ) ;
#110 = VERTEX_POINT ( 'NONE', #27 ) ;
#111 = STYLED_ITEM ( 'NONE', ( #104 ), #276 ) ;
#112 = EDGE_CURVE ( 'NONE', #137, #43, #135, .T. ) ;
#113 = ORIENTED_EDGE ( 'NONE', *, *, #125, .T. ) ;
#114 = EDGE_LOOP ( 'NONE', ( #86, #281, #310, #284 ) ) ;
#115 = ORIENTED_EDGE ( 'NONE', *, *, #289, .F. ) ;
#116 = UNCERTAINTY_MEASURE_WITH_UNIT (LENGTH_MEASURE( 1.000000000000000082E-05 ), #313, 'distance_accuracy_value', 'NONE');
#117 = CONICAL_SURFACE ( 'NONE', #8, 8.500000000000007105, 0.7853981633974552734 ) ;
#118 =( NAMED_UNIT ( * ) PLANE_ANGLE_UNIT ( ) SI_UNIT ( $, .RADIAN. ) );
#119 = LINE ( 'NONE', #75, #59 ) ;
#120 = AXIS2_PLACEMENT_3D ( 'NONE', #196, #79, #169 ) ;
#121 = EDGE_CURVE ( 'NONE', #248, #228, #189, .T. ) ;
#122 = AXIS2_PLACEMENT_3D ( 'NONE', #136, #180, #282 ) ;
#123 = CARTESIAN_POINT ( 'NONE',  ( 25.98290598290598652, 0.0000000000000000000, -8.500000000000014211 ) ) ;
#124 = DIRECTION ( 'NONE',  ( 0.0000000000000000000, 0.0000000000000000000, -1.000000000000000000 ) ) ;
#125 = EDGE_CURVE ( 'NONE', #228, #39, #63, .T. ) ;
#126 = AXIS2_PLACEMENT_3D ( 'NONE', #272, #55, #9 ) ;
#127 = DIRECTION ( 'NONE',  ( 0.0000000000000000000, 0.0000000000000000000, -1.000000000000000000 ) ) ;
#128 = CYLINDRICAL_SURFACE ( 'NONE', #74, 18.00000000000000000 ) ;
#129 = CARTESIAN_POINT ( 'NONE',  ( 25.48290598290597941, 0.0000000000000000000, 8.000000000000000000 ) ) ;
#130 = SURFACE_STYLE_FILL_AREA ( #10 ) ;
#131 = CYLINDRICAL_SURFACE ( 'NONE', #3, 8.000000000000000000 ) ;
#132 = CARTESIAN_POINT ( 'NONE',  ( 25.98290598290598652, 1.040949779275251915E-15, 8.500000000000014211 ) ) ;
#133 = LINE ( 'NONE', #301, #38 ) ;
#134 = VERTEX_POINT ( 'NONE', #132 ) ;
#135 = CIRCLE ( 'NONE', #139, 18.00000000000000000 ) ;
#136 = CARTESIAN_POINT ( 'NONE',  ( -5.517094017094007263, 0.0000000000000000000, 0.0000000000000000000 ) ) ;
#137 = VERTEX_POINT ( 'NONE', #275 ) ;
#138 = ORIENTED_EDGE ( 'NONE', *, *, #112, .F. ) ;
#139 = AXIS2_PLACEMENT_3D ( 'NONE', #312, #210, #1 ) ;
#140 = ORIENTED_EDGE ( 'NONE', *, *, #174, .T. ) ;
#141 = CARTESIAN_POINT ( 'NONE',  ( 25.98290598290597941, 1.040949779275251126E-15, 8.500000000000007105 ) ) ;
#142 = CIRCLE ( 'NONE', #88, 18.00000000000000000 ) ;
#143 = SURFACE_SIDE_STYLE ('',( #213 ) ) ;
#144 = DIRECTION ( 'NONE',  ( 0.0000000000000000000, 0.0000000000000000000, -1.000000000000000000 ) ) ;
#145 = DIRECTION ( 'NONE',  ( 0.0000000000000000000, 0.0000000000000000000, -1.000000000000000000 ) ) ;
#146 = FACE_OUTER_BOUND ( 'NONE', #159, .T. ) ;
#147 = CLOSED_SHELL ( 'NONE', ( #302, #2, #293, #184, #44, #222, #217, #267, #234, #260 ) ) ;
#148 = ORIENTED_EDGE ( 'NONE', *, *, #121, .F. ) ;
#149 = LINE ( 'NONE', #298, #256 ) ;
#150 = CARTESIAN_POINT ( 'NONE',  ( 25.98290598290597941, 0.0000000000000000000, 18.00000000000000000 ) ) ;
#151 = AXIS2_PLACEMENT_3D ( 'NONE', #52, #195, #5 ) ;
#152 = APPLICATION_PROTOCOL_DEFINITION ( 'draft international standard', 'automotive_design', 1998, #40 ) ;
#153 = LINE ( 'NONE', #220, #170 ) ;
#154 = EDGE_CURVE ( 'NONE', #134, #42, #236, .T. ) ;
#155 = CARTESIAN_POINT ( 'NONE',  ( 25.98290598290597941, 0.0000000000000000000, 0.0000000000000000000 ) ) ;
#156 = ORIENTED_EDGE ( 'NONE', *, *, #176, .F. ) ;
#157 = ORIENTED_EDGE ( 'NONE', *, *, #200, .T. ) ;
#158 = ORIENTED_EDGE ( 'NONE', *, *, #200, .F. ) ;
#159 = EDGE_LOOP ( 'NONE', ( #156, #157, #262, #138 ) ) ;
#160 = EDGE_LOOP ( 'NONE', ( #182, #22, #259, #178 ) ) ;
#161 = AXIS2_PLACEMENT_3D ( 'NONE', #94, #93, #144 ) ;
#162 = DIRECTION ( 'NONE',  ( 0.0000000000000000000, 0.0000000000000000000, 1.000000000000000000 ) ) ;
#163 =( LENGTH_UNIT ( ) NAMED_UNIT ( * ) SI_UNIT ( .MILLI., .METRE. ) );
#164 = DIRECTION ( 'NONE',  ( 1.000000000000000000, -0.0000000000000000000, -0.0000000000000000000 ) ) ;
#165 = VECTOR ( 'NONE', #166, 1000.000000000000000 ) ;
#166 = DIRECTION ( 'NONE',  ( -1.000000000000000000, -0.0000000000000000000, -0.0000000000000000000 ) ) ;
#167 = FACE_BOUND ( 'NONE', #183, .T. ) ;
#168 = CARTESIAN_POINT ( 'NONE',  ( -6.017094017094014369, 1.040949779275250929E-15, -8.500000000000007105 ) ) ;
#169 = DIRECTION ( 'NONE',  ( 0.0000000000000000000, 0.0000000000000000000, 1.000000000000000000 ) ) ;
#170 = VECTOR ( 'NONE', #295, 1000.000000000000000 ) ;
#171 = PRODUCT_RELATED_PRODUCT_CATEGORY ( 'part', '', ( #221 ) ) ;
#172 = DIRECTION ( 'NONE',  ( 0.0000000000000000000, 0.0000000000000000000, 1.000000000000000000 ) ) ;
#173 =( NAMED_UNIT ( * ) PLANE_ANGLE_UNIT ( ) SI_UNIT ( $, .RADIAN. ) );
#174 = EDGE_CURVE ( 'NONE', #248, #42, #153, .T. ) ;
#175 = DIRECTION ( 'NONE',  ( -1.000000000000000000, -0.0000000000000000000, -0.0000000000000000000 ) ) ;
#176 = EDGE_CURVE ( 'NONE', #110, #137, #133, .T. ) ;
#177 = CARTESIAN_POINT ( 'NONE',  ( -46.22222222222222143, 0.0000000000000000000, 0.0000000000000000000 ) ) ;
#178 = ORIENTED_EDGE ( 'NONE', *, *, #34, .F. ) ;
#179 = VERTEX_POINT ( 'NONE', #168 ) ;
#180 = DIRECTION ( 'NONE',  ( -1.000000000000000000, 0.0000000000000000000, 0.0000000000000000000 ) ) ;
#181 = AXIS2_PLACEMENT_3D ( 'NONE', #247, #58, #201 ) ;
#182 = ORIENTED_EDGE ( 'NONE', *, *, #279, .T. ) ;
#183 = EDGE_LOOP ( 'NONE', ( #109, #207 ) ) ;
#184 = ADVANCED_FACE ( 'NONE', ( #29 ), #252, .T. ) ;
#185 = CONICAL_SURFACE ( 'NONE', #227, 8.500000000000007105, 0.7853981633974552734 ) ;
#186 = LINE ( 'NONE', #141, #258 ) ;
#187 = CARTESIAN_POINT ( 'NONE',  ( -5.517094017094007263, 0.0000000000000000000, 8.000000000000000000 ) ) ;
#188 = DIRECTION ( 'NONE',  ( 0.0000000000000000000, 0.0000000000000000000, 1.000000000000000000 ) ) ;
#189 = LINE ( 'NONE', #73, #165 ) ;
#190 = AXIS2_PLACEMENT_3D ( 'NONE', #266, #164, #162 ) ;
#191 = CARTESIAN_POINT ( 'NONE',  ( -5.517094017094007263, 9.797174393178825657E-16, -8.000000000000000000 ) ) ;
#192 = DIRECTION ( 'NONE',  ( 0.0000000000000000000, 0.0000000000000000000, -1.000000000000000000 ) ) ;
#193 = SHAPE_DEFINITION_REPRESENTATION ( #212, #276 ) ;
#194 = DIRECTION ( 'NONE',  ( 0.0000000000000000000, 0.0000000000000000000, 1.000000000000000000 ) ) ;
#195 = DIRECTION ( 'NONE',  ( 0.0000000000000000000, 0.0000000000000000000, 1.000000000000000000 ) ) ;
#196 = CARTESIAN_POINT ( 'NONE',  ( -46.22222222222222143, 0.0000000000000000000, 0.0000000000000000000 ) ) ;
#197 = PRESENTATION_LAYER_ASSIGNMENT (  '', '', ( #229 ) ) ;
#198 = DIRECTION ( 'NONE',  ( 0.0000000000000000000, 0.0000000000000000000, 1.000000000000000000 ) ) ;
#199 = SURFACE_SIDE_STYLE ('',( #130 ) ) ;
#200 = EDGE_CURVE ( 'NONE', #110, #280, #142, .T. ) ;
#201 = DIRECTION ( 'NONE',  ( 0.0000000000000000000, 0.0000000000000000000, 1.000000000000000000 ) ) ;
#202 = ORIENTED_EDGE ( 'NONE', *, *, #30, .T. ) ;
#203 = ORIENTED_EDGE ( 'NONE', *, *, #289, .T. ) ;
#204 = ORIENTED_EDGE ( 'NONE', *, *, #255, .T. ) ;
#205 = CIRCLE ( 'NONE', #286, 18.00000000000000000 ) ;
#206 = EDGE_LOOP ( 'NONE', ( #19, #20, #231, #232 ) ) ;
#207 = ORIENTED_EDGE ( 'NONE', *, *, #66, .T. ) ;
#208 = COLOUR_RGB ( '',0.7921568627450980005, 0.8196078431372548767, 0.9333333333333333481 ) ;
#209 = PRESENTATION_STYLE_ASSIGNMENT (( #263 ) ) ;
#210 = DIRECTION ( 'NONE',  ( -1.000000000000000000, -0.0000000000000000000, -0.0000000000000000000 ) ) ;
#211 = MECHANICAL_DESIGN_GEOMETRIC_PRESENTATION_REPRESENTATION (  '', ( #111 ), #300 ) ;
#212 = PRODUCT_DEFINITION_SHAPE ( 'NONE', 'NONE',  #230 ) ;
#213 = SURFACE_STYLE_FILL_AREA ( #292 ) ;
#214 = CONICAL_SURFACE ( 'NONE', #122, 8.000000000000000000, 0.7853981633974482790 ) ;
#215 = CARTESIAN_POINT ( 'NONE',  ( -5.517094017094007263, 0.0000000000000000000, 8.000000000000000000 ) ) ;
#216 = PRODUCT_DEFINITION_CONTEXT ( 'detailed design', #70, 'design' ) ;
#217 = ADVANCED_FACE ( 'NONE', ( #249, #100 ), #35, .F. ) ;
#218 = DIRECTION ( 'NONE',  ( -1.000000000000000000, 0.0000000000000000000, 0.0000000000000000000 ) ) ;
#219 =( GEOMETRIC_REPRESENTATION_CONTEXT ( 3 ) GLOBAL_UNCERTAINTY_ASSIGNED_CONTEXT ( ( #116 ) ) GLOBAL_UNIT_ASSIGNED_CONTEXT ( ( #313, #118, #273 ) ) REPRESENTATION_CONTEXT ( 'NONE', 'WORKASPACE' ) );
#220 = CARTESIAN_POINT ( 'NONE',  ( 25.98290598290597941, 0.0000000000000000000, -8.500000000000007105 ) ) ;
#221 = PRODUCT ( 'BRM 14x4', 'BRM 14x4', '', ( #56 ) ) ;
#222 = ADVANCED_FACE ( 'NONE', ( #146 ), #128, .T. ) ;
#223 = CARTESIAN_POINT ( 'NONE',  ( -46.22222222222222143, 0.0000000000000000000, 0.0000000000000000000 ) ) ;
#224 = AXIS2_PLACEMENT_3D ( 'NONE', #4, #107, #172 ) ;
#225 = DIRECTION ( 'NONE',  ( -0.0000000000000000000, 0.0000000000000000000, 1.000000000000000000 ) ) ;
#226 = DIRECTION ( 'NONE',  ( 1.000000000000000000, -0.0000000000000000000, -0.0000000000000000000 ) ) ;
#227 = AXIS2_PLACEMENT_3D ( 'NONE', #269, #36, #192 ) ;
#228 = VERTEX_POINT ( 'NONE', #13 ) ;
#229 = STYLED_ITEM ( 'NONE', ( #209 ), #106 ) ;
#230 = PRODUCT_DEFINITION ( 'UNKNOWN', '', #96, #216 ) ;
#231 = ORIENTED_EDGE ( 'NONE', *, *, #41, .T. ) ;
#232 = ORIENTED_EDGE ( 'NONE', *, *, #66, .F. ) ;
#233 = CIRCLE ( 'NONE', #244, 8.000000000000000000 ) ;
#234 = ADVANCED_FACE ( 'NONE', ( #102 ), #21, .F. ) ;
#235 = VERTEX_POINT ( 'NONE', #129 ) ;
#236 = CIRCLE ( 'NONE', #181, 8.500000000000014211 ) ;
#237 = ORIENTED_EDGE ( 'NONE', *, *, #309, .T. ) ;
#238 = DIRECTION ( 'NONE',  ( -0.7071067811865474617, 8.659560562354932858E-17, -0.7071067811865474617 ) ) ;
#239 = DIRECTION ( 'NONE',  ( 0.7071067811865426878, 8.659560562354994488E-17, 0.7071067811865524577 ) ) ;
#240 = CIRCLE ( 'NONE', #83, 8.500000000000014211 ) ;
#241 =( NAMED_UNIT ( * ) SI_UNIT ( $, .STERADIAN. ) SOLID_ANGLE_UNIT ( ) );
#242 = DIRECTION ( 'NONE',  ( -1.000000000000000000, 0.0000000000000000000, 0.0000000000000000000 ) ) ;
#243 = APPLICATION_PROTOCOL_DEFINITION ( 'draft international standard', 'automotive_design', 1998, #70 ) ;
#244 = AXIS2_PLACEMENT_3D ( 'NONE', #15, #108, #245 ) ;
#245 = DIRECTION ( 'NONE',  ( 0.0000000000000000000, 0.0000000000000000000, -1.000000000000000000 ) ) ;
#246 = MECHANICAL_DESIGN_GEOMETRIC_PRESENTATION_REPRESENTATION (  '', ( #229 ), #271 ) ;
#247 = CARTESIAN_POINT ( 'NONE',  ( 25.98290598290598652, 0.0000000000000000000, 0.0000000000000000000 ) ) ;
#248 = VERTEX_POINT ( 'NONE', #277 ) ;
#249 = FACE_BOUND ( 'NONE', #306, .T. ) ;
#250 = SURFACE_STYLE_USAGE ( .BOTH. , #199 ) ;
#251 = DIRECTION ( 'NONE',  ( -1.000000000000000000, -0.0000000000000000000, -0.0000000000000000000 ) ) ;
#252 = CYLINDRICAL_SURFACE ( 'NONE', #224, 18.00000000000000000 ) ;
#253 = DIRECTION ( 'NONE',  ( -1.000000000000000000, 0.0000000000000000000, -0.0000000000000000000 ) ) ;
#254 = EDGE_LOOP ( 'NONE', ( #37, #158 ) ) ;
#255 = EDGE_CURVE ( 'NONE', #43, #137, #205, .T. ) ;
#256 = VECTOR ( 'NONE', #251, 1000.000000000000000 ) ;
#257 = ORIENTED_EDGE ( 'NONE', *, *, #14, .T. ) ;
#258 = VECTOR ( 'NONE', #239, 1000.000000000000000 ) ;
#259 = ORIENTED_EDGE ( 'NONE', *, *, #255, .F. ) ;
#260 = ADVANCED_FACE ( 'NONE', ( #51 ), #185, .F. ) ;
#261 = ORIENTED_EDGE ( 'NONE', *, *, #112, .T. ) ;
#262 = ORIENTED_EDGE ( 'NONE', *, *, #34, .T. ) ;
#263 = SURFACE_STYLE_USAGE ( .BOTH. , #143 ) ;
#264 = FILL_AREA_STYLE_COLOUR ( '', #297 ) ;
#265 = AXIS2_PLACEMENT_3D ( 'NONE', #80, #253, #225 ) ;
#266 = CARTESIAN_POINT ( 'NONE',  ( 25.48290598290597941, 0.0000000000000000000, 0.0000000000000000000 ) ) ;
#267 = ADVANCED_FACE ( 'NONE', ( #274 ), #6, .F. ) ;
#268 = CARTESIAN_POINT ( 'NONE',  ( 25.48290598290597941, 0.0000000000000000000, 0.0000000000000000000 ) ) ;
#269 = CARTESIAN_POINT ( 'NONE',  ( 25.98290598290597941, 0.0000000000000000000, 0.0000000000000000000 ) ) ;
#270 =( NAMED_UNIT ( * ) SI_UNIT ( $, .STERADIAN. ) SOLID_ANGLE_UNIT ( ) );
#271 =( GEOMETRIC_REPRESENTATION_CONTEXT ( 3 ) GLOBAL_UNCERTAINTY_ASSIGNED_CONTEXT ( ( #92 ) ) GLOBAL_UNIT_ASSIGNED_CONTEXT ( ( #163, #47, #241 ) ) REPRESENTATION_CONTEXT ( 'NONE', 'WORKASPACE' ) );
#272 = CARTESIAN_POINT ( 'NONE',  ( 25.98290598290597941, 0.0000000000000000000, 0.0000000000000000000 ) ) ;
#273 =( NAMED_UNIT ( * ) SI_UNIT ( $, .STERADIAN. ) SOLID_ANGLE_UNIT ( ) );
#274 = FACE_OUTER_BOUND ( 'NONE', #285, .T. ) ;
#275 = CARTESIAN_POINT ( 'NONE',  ( -6.017094017094014369, 2.204364238465235428E-15, -18.00000000000000000 ) ) ;
#276 = ADVANCED_BREP_SHAPE_REPRESENTATION ( 'BRM 14x4', ( #106, #151 ), #219 ) ;
#277 = CARTESIAN_POINT ( 'NONE',  ( 25.48290598290597941, 9.797174393178825657E-16, -8.000000000000000000 ) ) ;
#278 = AXIS2_PLACEMENT_3D ( 'NONE', #49, #242, #127 ) ;
#279 = EDGE_CURVE ( 'NONE', #280, #110, #78, .T. ) ;
#280 = VERTEX_POINT ( 'NONE', #150 ) ;
#281 = ORIENTED_EDGE ( 'NONE', *, *, #72, .T. ) ;
#282 = DIRECTION ( 'NONE',  ( 0.0000000000000000000, 0.0000000000000000000, 1.000000000000000000 ) ) ;
#283 = CIRCLE ( 'NONE', #24, 8.500000000000007105 ) ;
#284 = ORIENTED_EDGE ( 'NONE', *, *, #174, .F. ) ;
#285 = EDGE_LOOP ( 'NONE', ( #148, #45, #203, #237 ) ) ;
#286 = AXIS2_PLACEMENT_3D ( 'NONE', #60, #175, #296 ) ;
#287 = CARTESIAN_POINT ( 'NONE',  ( -6.017094017094014369, 0.0000000000000000000, 0.0000000000000000000 ) ) ;
#288 = VECTOR ( 'NONE', #238, 1000.000000000000114 ) ;
#289 = EDGE_CURVE ( 'NONE', #235, #39, #149, .T. ) ;
#290 = CARTESIAN_POINT ( 'NONE',  ( -6.017094017094014369, 0.0000000000000000000, 8.500000000000007105 ) ) ;
#291 = CARTESIAN_POINT ( 'NONE',  ( 25.98290598290598652, 0.0000000000000000000, 0.0000000000000000000 ) ) ;
#292 = FILL_AREA_STYLE ('',( #264 ) ) ;
#293 = ADVANCED_FACE ( 'NONE', ( #33 ), #131, .F. ) ;
#294 = DIRECTION ( 'NONE',  ( 0.0000000000000000000, 0.0000000000000000000, 1.000000000000000000 ) ) ;
#295 = DIRECTION ( 'NONE',  ( 0.7071067811865426878, 0.0000000000000000000, -0.7071067811865524577 ) ) ;
#296 = DIRECTION ( 'NONE',  ( 0.0000000000000000000, 0.0000000000000000000, 1.000000000000000000 ) ) ;
#297 = COLOUR_RGB ( '',0.7921568627450980005, 0.8196078431372548767, 0.9333333333333333481 ) ;
#298 = CARTESIAN_POINT ( 'NONE',  ( -46.22222222222222143, 0.0000000000000000000, 8.000000000000000000 ) ) ;
#299 = FACE_OUTER_BOUND ( 'NONE', #114, .T. ) ;
#300 =( GEOMETRIC_REPRESENTATION_CONTEXT ( 3 ) GLOBAL_UNCERTAINTY_ASSIGNED_CONTEXT ( ( #7 ) ) GLOBAL_UNIT_ASSIGNED_CONTEXT ( ( #32, #173, #270 ) ) REPRESENTATION_CONTEXT ( 'NONE', 'WORKASPACE' ) );
#301 = CARTESIAN_POINT ( 'NONE',  ( -46.22222222222222143, 2.204364238465235428E-15, -18.00000000000000000 ) ) ;
#302 = ADVANCED_FACE ( 'NONE', ( #299 ), #117, .F. ) ;
#303 = VECTOR ( 'NONE', #71, 1000.000000000000114 ) ;
#304 = ORIENTED_EDGE ( 'NONE', *, *, #85, .F. ) ;
#305 = FACE_OUTER_BOUND ( 'NONE', #62, .T. ) ;
#306 = EDGE_LOOP ( 'NONE', ( #202, #311 ) ) ;
#307 = ORIENTED_EDGE ( 'NONE', *, *, #125, .F. ) ;
#308 = CIRCLE ( 'NONE', #68, 8.000000000000000000 ) ;
#309 = EDGE_CURVE ( 'NONE', #39, #228, #233, .T. ) ;
#310 = ORIENTED_EDGE ( 'NONE', *, *, #30, .F. ) ;
#311 = ORIENTED_EDGE ( 'NONE', *, *, #154, .T. ) ;
#312 = CARTESIAN_POINT ( 'NONE',  ( -6.017094017094014369, 0.0000000000000000000, 0.0000000000000000000 ) ) ;
#313 =( LENGTH_UNIT ( ) NAMED_UNIT ( * ) SI_UNIT ( .MILLI., .METRE. ) );
#314 = PLANE ( 'NONE',  #161 ) ;
ENDSEC;
END-ISO-10303-21;
