ISO-10303-21;
HEADER;
FILE_DESCRIPTION (( 'STEP AP214' ),
    '1' );
FILE_NAME ('BRM 80x10.step',
    '2020-09-08T10:24:18',
    ( '' ),
    ( '' ),
    'SwSTEP 2.0',
    'SolidWorks 2020',
    '' );
FILE_SCHEMA (( 'AUTOMOTIVE_DESIGN' ));
ENDSEC;

DATA;
#1 = DIRECTION ( 'NONE',  ( 1.000000000000000000, 0.0000000000000000000, 0.0000000000000000000 ) ) ;
#2 = ORIENTED_EDGE ( 'NONE', *, *, #77, .F. ) ;
#3 = VECTOR ( 'NONE', #51, 1000.000000000000000 ) ;
#4 = FILL_AREA_STYLE ('',( #177 ) ) ;
#5 = ORIENTED_EDGE ( 'NONE', *, *, #236, .F. ) ;
#6 = EDGE_CURVE ( 'NONE', #217, #108, #74, .T. ) ;
#7 = PRESENTATION_STYLE_ASSIGNMENT (( #52 ) ) ;
#8 = EDGE_LOOP ( 'NONE', ( #47, #23 ) ) ;
#9 = DIRECTION ( 'NONE',  ( 0.0000000000000000000, 0.0000000000000000000, 1.000000000000000000 ) ) ;
#10 = ADVANCED_FACE ( 'NONE', ( #119 ), #123, .F. ) ;
#11 = STYLED_ITEM ( 'NONE', ( #7 ), #121 ) ;
#12 = AXIS2_PLACEMENT_3D ( 'NONE', #225, #37, #9 ) ;
#13 = CARTESIAN_POINT ( 'NONE',  ( 153.9829059829059759, 0.0000000000000000000, 0.0000000000000000000 ) ) ;
#14 = ORIENTED_EDGE ( 'NONE', *, *, #179, .F. ) ;
#15 = APPLICATION_PROTOCOL_DEFINITION ( 'draft international standard', 'automotive_design', 1998, #146 ) ;
#16 = CARTESIAN_POINT ( 'NONE',  ( -5.517094017094007263, 4.898587196589413026E-15, -40.00000000000000000 ) ) ;
#17 = AXIS2_PLACEMENT_3D ( 'NONE', #275, #61, #112 ) ;
#18 = CIRCLE ( 'NONE', #54, 60.00000000000000000 ) ;
#19 = PRODUCT_CONTEXT ( 'NONE', #146, 'mechanical' ) ;
#20 = EDGE_LOOP ( 'NONE', ( #14, #25, #94, #293 ) ) ;
#21 = DIRECTION ( 'NONE',  ( -1.000000000000000000, -0.0000000000000000000, -0.0000000000000000000 ) ) ;
#22 = PRODUCT_RELATED_PRODUCT_CATEGORY ( 'part', '', ( #170 ) ) ;
#23 = ORIENTED_EDGE ( 'NONE', *, *, #144, .T. ) ;
#24 = AXIS2_PLACEMENT_3D ( 'NONE', #216, #46, #308 ) ;
#25 = ORIENTED_EDGE ( 'NONE', *, *, #228, .T. ) ;
#26 = ORIENTED_EDGE ( 'NONE', *, *, #207, .F. ) ;
#27 = CARTESIAN_POINT ( 'NONE',  ( -6.017094017094014369, 7.347880794884118356E-15, -60.00000000000000000 ) ) ;
#28 = AXIS2_PLACEMENT_3D ( 'NONE', #266, #97, #219 ) ;
#29 = SURFACE_SIDE_STYLE ('',( #270 ) ) ;
#30 = CARTESIAN_POINT ( 'NONE',  ( -6.017094017094014369, 0.0000000000000000000, 0.0000000000000000000 ) ) ;
#31 = ADVANCED_FACE ( 'NONE', ( #44 ), #256, .F. ) ;
#32 = CYLINDRICAL_SURFACE ( 'NONE', #99, 60.00000000000000000 ) ;
#33 = AXIS2_PLACEMENT_3D ( 'NONE', #30, #1, #100 ) ;
#34 = DIRECTION ( 'NONE',  ( 1.000000000000000000, -0.0000000000000000000, -0.0000000000000000000 ) ) ;
#35 = EDGE_LOOP ( 'NONE', ( #57, #213 ) ) ;
#36 = FACE_OUTER_BOUND ( 'NONE', #118, .T. ) ;
#37 = DIRECTION ( 'NONE',  ( -1.000000000000000000, -0.0000000000000000000, -0.0000000000000000000 ) ) ;
#38 = APPLICATION_PROTOCOL_DEFINITION ( 'draft international standard', 'automotive_design', 1998, #120 ) ;
#39 = ORIENTED_EDGE ( 'NONE', *, *, #50, .F. ) ;
#40 = DIRECTION ( 'NONE',  ( 0.0000000000000000000, 0.0000000000000000000, -1.000000000000000000 ) ) ;
#41 = FILL_AREA_STYLE ('',( #274 ) ) ;
#42 = ORIENTED_EDGE ( 'NONE', *, *, #204, .T. ) ;
#43 = VECTOR ( 'NONE', #145, 1000.000000000000000 ) ;
#44 = FACE_OUTER_BOUND ( 'NONE', #20, .T. ) ;
#45 = EDGE_CURVE ( 'NONE', #153, #305, #263, .T. ) ;
#46 = DIRECTION ( 'NONE',  ( -1.000000000000000000, 0.0000000000000000000, 0.0000000000000000000 ) ) ;
#47 = ORIENTED_EDGE ( 'NONE', *, *, #286, .T. ) ;
#48 = AXIS2_PLACEMENT_3D ( 'NONE', #234, #21, #306 ) ;
#49 = COLOUR_RGB ( '',0.7921568627450980005, 0.8196078431372548767, 0.9333333333333333481 ) ;
#50 = EDGE_CURVE ( 'NONE', #284, #108, #71, .T. ) ;
#51 = DIRECTION ( 'NONE',  ( -1.000000000000000000, -0.0000000000000000000, -0.0000000000000000000 ) ) ;
#52 = SURFACE_STYLE_USAGE ( .BOTH. , #29 ) ;
#53 = DIRECTION ( 'NONE',  ( -0.7071067811865474617, 0.0000000000000000000, 0.7071067811865474617 ) ) ;
#54 = AXIS2_PLACEMENT_3D ( 'NONE', #226, #84, #295 ) ;
#55 = CYLINDRICAL_SURFACE ( 'NONE', #227, 40.00000000000000000 ) ;
#56 = EDGE_CURVE ( 'NONE', #305, #143, #218, .T. ) ;
#57 = ORIENTED_EDGE ( 'NONE', *, *, #207, .T. ) ;
#58 = ADVANCED_BREP_SHAPE_REPRESENTATION ( 'BRM 80x10', ( #121, #231 ), #157 ) ;
#59 =( GEOMETRIC_REPRESENTATION_CONTEXT ( 3 ) GLOBAL_UNCERTAINTY_ASSIGNED_CONTEXT ( ( #311 ) ) GLOBAL_UNIT_ASSIGNED_CONTEXT ( ( #188, #160, #131 ) ) REPRESENTATION_CONTEXT ( 'NONE', 'WORKASPACE' ) );
#60 = DIRECTION ( 'NONE',  ( 0.0000000000000000000, 0.0000000000000000000, 1.000000000000000000 ) ) ;
#61 = DIRECTION ( 'NONE',  ( -1.000000000000000000, -0.0000000000000000000, -0.0000000000000000000 ) ) ;
#62 = DIRECTION ( 'NONE',  ( 1.000000000000000000, 0.0000000000000000000, 0.0000000000000000000 ) ) ;
#63 = CARTESIAN_POINT ( 'NONE',  ( 153.9829059829059759, 4.959819536546783755E-15, 40.50000000000002132 ) ) ;
#64 = AXIS2_PLACEMENT_3D ( 'NONE', #115, #75, #73 ) ;
#65 = ORIENTED_EDGE ( 'NONE', *, *, #6, .T. ) ;
#66 = EDGE_LOOP ( 'NONE', ( #255, #155, #95, #264 ) ) ;
#67 = ADVANCED_FACE ( 'NONE', ( #239, #114 ), #91, .F. ) ;
#68 = DIRECTION ( 'NONE',  ( -1.000000000000000000, 0.0000000000000000000, -0.0000000000000000000 ) ) ;
#69 = AXIS2_PLACEMENT_3D ( 'NONE', #281, #265, #172 ) ;
#70 = VERTEX_POINT ( 'NONE', #259 ) ;
#71 = LINE ( 'NONE', #168, #43 ) ;
#72 = EDGE_CURVE ( 'NONE', #205, #203, #102, .T. ) ;
#73 = DIRECTION ( 'NONE',  ( 0.0000000000000000000, 0.0000000000000000000, -1.000000000000000000 ) ) ;
#74 = CIRCLE ( 'NONE', #24, 40.00000000000000000 ) ;
#75 = DIRECTION ( 'NONE',  ( 1.000000000000000000, -0.0000000000000000000, -0.0000000000000000000 ) ) ;
#76 = CARTESIAN_POINT ( 'NONE',  ( 153.9829059829059759, 0.0000000000000000000, -40.50000000000002132 ) ) ;
#77 = EDGE_CURVE ( 'NONE', #310, #284, #190, .T. ) ;
#78 = AXIS2_PLACEMENT_3D ( 'NONE', #103, #187, #277 ) ;
#79 = CARTESIAN_POINT ( 'NONE',  ( 153.4829059829059474, 0.0000000000000000000, 0.0000000000000000000 ) ) ;
#80 = ORIENTED_EDGE ( 'NONE', *, *, #6, .F. ) ;
#81 = DIRECTION ( 'NONE',  ( 0.0000000000000000000, 0.0000000000000000000, 1.000000000000000000 ) ) ;
#82 = VECTOR ( 'NONE', #248, 1000.000000000000000 ) ;
#83 = LINE ( 'NONE', #278, #128 ) ;
#84 = DIRECTION ( 'NONE',  ( -1.000000000000000000, -0.0000000000000000000, -0.0000000000000000000 ) ) ;
#85 = FACE_OUTER_BOUND ( 'NONE', #8, .T. ) ;
#86 = EDGE_CURVE ( 'NONE', #142, #70, #282, .T. ) ;
#87 = ORIENTED_EDGE ( 'NONE', *, *, #45, .T. ) ;
#88 = CIRCLE ( 'NONE', #17, 40.50000000000002132 ) ;
#89 = CYLINDRICAL_SURFACE ( 'NONE', #199, 60.00000000000000000 ) ;
#90 = ADVANCED_FACE ( 'NONE', ( #206 ), #55, .F. ) ;
#91 = PLANE ( 'NONE',  #262 ) ;
#92 = ORIENTED_EDGE ( 'NONE', *, *, #165, .F. ) ;
#93 = DIRECTION ( 'NONE',  ( 0.0000000000000000000, 0.0000000000000000000, -1.000000000000000000 ) ) ;
#94 = ORIENTED_EDGE ( 'NONE', *, *, #72, .F. ) ;
#95 = ORIENTED_EDGE ( 'NONE', *, *, #50, .T. ) ;
#96 = AXIS2_PLACEMENT_3D ( 'NONE', #150, #244, #124 ) ;
#97 = DIRECTION ( 'NONE',  ( -1.000000000000000000, 0.0000000000000000000, 0.0000000000000000000 ) ) ;
#98 = FACE_OUTER_BOUND ( 'NONE', #212, .T. ) ;
#99 = AXIS2_PLACEMENT_3D ( 'NONE', #126, #125, #246 ) ;
#100 = DIRECTION ( 'NONE',  ( 0.0000000000000000000, 0.0000000000000000000, -1.000000000000000000 ) ) ;
#101 = DIRECTION ( 'NONE',  ( 0.0000000000000000000, 0.0000000000000000000, 1.000000000000000000 ) ) ;
#102 = CIRCLE ( 'NONE', #48, 40.50000000000002132 ) ;
#103 = CARTESIAN_POINT ( 'NONE',  ( -5.517094017094007263, 0.0000000000000000000, 0.0000000000000000000 ) ) ;
#104 = ORIENTED_EDGE ( 'NONE', *, *, #204, .F. ) ;
#105 = CARTESIAN_POINT ( 'NONE',  ( 153.9829059829059759, 7.347880794884118356E-15, -60.00000000000000000 ) ) ;
#106 = ADVANCED_FACE ( 'NONE', ( #182 ), #32, .T. ) ;
#107 = CARTESIAN_POINT ( 'NONE',  ( -6.017094017094014369, 40.00000000000000000, 0.0000000000000000000 ) ) ;
#108 = VERTEX_POINT ( 'NONE', #220 ) ;
#109 =( NAMED_UNIT ( * ) PLANE_ANGLE_UNIT ( ) SI_UNIT ( $, .RADIAN. ) );
#110 = ORIENTED_EDGE ( 'NONE', *, *, #165, .T. ) ;
#111 = CIRCLE ( 'NONE', #176, 60.00000000000000000 ) ;
#112 = DIRECTION ( 'NONE',  ( 0.0000000000000000000, 0.0000000000000000000, 1.000000000000000000 ) ) ;
#113 = ADVANCED_FACE ( 'NONE', ( #201 ), #292, .F. ) ;
#114 = FACE_OUTER_BOUND ( 'NONE', #221, .T. ) ;
#115 = CARTESIAN_POINT ( 'NONE',  ( 153.9829059829059759, 0.0000000000000000000, 0.0000000000000000000 ) ) ;
#116 = EDGE_LOOP ( 'NONE', ( #269, #271, #194, #169 ) ) ;
#117 = ADVANCED_FACE ( 'NONE', ( #98 ), #301, .F. ) ;
#118 = EDGE_LOOP ( 'NONE', ( #240, #195, #65, #39 ) ) ;
#119 = FACE_OUTER_BOUND ( 'NONE', #287, .T. ) ;
#120 = APPLICATION_CONTEXT ( 'automotive_design' ) ;
#121 = MANIFOLD_SOLID_BREP ( 'Chamfer1', #166 ) ;
#122 = DIRECTION ( 'NONE',  ( 0.0000000000000000000, 0.0000000000000000000, 1.000000000000000000 ) ) ;
#123 = CONICAL_SURFACE ( 'NONE', #243, 40.50000000000002132, 0.7853981633974415066 ) ;
#124 = DIRECTION ( 'NONE',  ( 0.0000000000000000000, 0.0000000000000000000, 1.000000000000000000 ) ) ;
#125 = DIRECTION ( 'NONE',  ( -1.000000000000000000, -0.0000000000000000000, -0.0000000000000000000 ) ) ;
#126 = CARTESIAN_POINT ( 'NONE',  ( -46.22222222222222143, 0.0000000000000000000, 0.0000000000000000000 ) ) ;
#127 = VECTOR ( 'NONE', #298, 1000.000000000000000 ) ;
#128 = VECTOR ( 'NONE', #279, 1000.000000000000114 ) ;
#129 = CARTESIAN_POINT ( 'NONE',  ( -5.517094017094007263, 0.0000000000000000000, 0.0000000000000000000 ) ) ;
#130 = CYLINDRICAL_SURFACE ( 'NONE', #12, 40.00000000000000000 ) ;
#131 =( NAMED_UNIT ( * ) SI_UNIT ( $, .STERADIAN. ) SOLID_ANGLE_UNIT ( ) );
#132 = FACE_OUTER_BOUND ( 'NONE', #116, .T. ) ;
#133 = SHAPE_DEFINITION_REPRESENTATION ( #241, #58 ) ;
#134 = AXIS2_PLACEMENT_3D ( 'NONE', #13, #189, #136 ) ;
#135 = UNCERTAINTY_MEASURE_WITH_UNIT (LENGTH_MEASURE( 1.000000000000000082E-05 ), #174, 'distance_accuracy_value', 'NONE');
#136 = DIRECTION ( 'NONE',  ( 0.0000000000000000000, 0.0000000000000000000, 1.000000000000000000 ) ) ;
#137 = CARTESIAN_POINT ( 'NONE',  ( -6.017094017094014369, 0.0000000000000000000, 0.0000000000000000000 ) ) ;
#138 = EDGE_CURVE ( 'NONE', #310, #205, #152, .T. ) ;
#139 = AXIS2_PLACEMENT_3D ( 'NONE', #137, #229, #185 ) ;
#140 = CIRCLE ( 'NONE', #78, 40.00000000000000000 ) ;
#141 = CARTESIAN_POINT ( 'NONE',  ( 153.9829059829059759, 0.0000000000000000000, 0.0000000000000000000 ) ) ;
#142 = VERTEX_POINT ( 'NONE', #154 ) ;
#143 = VERTEX_POINT ( 'NONE', #27 ) ;
#144 = EDGE_CURVE ( 'NONE', #143, #181, #111, .T. ) ;
#145 = DIRECTION ( 'NONE',  ( -1.000000000000000000, -0.0000000000000000000, -0.0000000000000000000 ) ) ;
#146 = APPLICATION_CONTEXT ( 'automotive_design' ) ;
#147 = CARTESIAN_POINT ( 'NONE',  ( 153.9829059829059759, 60.00000000000000000, 0.0000000000000000000 ) ) ;
#148 = DIRECTION ( 'NONE',  ( -1.000000000000000000, -0.0000000000000000000, -0.0000000000000000000 ) ) ;
#149 = EDGE_CURVE ( 'NONE', #310, #217, #200, .T. ) ;
#150 = CARTESIAN_POINT ( 'NONE',  ( 153.4829059829059474, 0.0000000000000000000, 0.0000000000000000000 ) ) ;
#151 = DIRECTION ( 'NONE',  ( -1.000000000000000000, -0.0000000000000000000, -0.0000000000000000000 ) ) ;
#152 = LINE ( 'NONE', #76, #82 ) ;
#153 = VERTEX_POINT ( 'NONE', #202 ) ;
#154 = CARTESIAN_POINT ( 'NONE',  ( -6.017094017094014369, 4.959819536546781389E-15, -40.50000000000000711 ) ) ;
#155 = ORIENTED_EDGE ( 'NONE', *, *, #77, .T. ) ;
#156 = VECTOR ( 'NONE', #148, 1000.000000000000000 ) ;
#157 =( GEOMETRIC_REPRESENTATION_CONTEXT ( 3 ) GLOBAL_UNCERTAINTY_ASSIGNED_CONTEXT ( ( #300 ) ) GLOBAL_UNIT_ASSIGNED_CONTEXT ( ( #191, #109, #296 ) ) REPRESENTATION_CONTEXT ( 'NONE', 'WORKASPACE' ) );
#158 = CARTESIAN_POINT ( 'NONE',  ( -46.22222222222222143, 0.0000000000000000000, 60.00000000000000000 ) ) ;
#159 = DIRECTION ( 'NONE',  ( -1.000000000000000000, -0.0000000000000000000, -0.0000000000000000000 ) ) ;
#160 =( NAMED_UNIT ( * ) PLANE_ANGLE_UNIT ( ) SI_UNIT ( $, .RADIAN. ) );
#161 = DIRECTION ( 'NONE',  ( 1.000000000000000000, 0.0000000000000000000, 0.0000000000000000000 ) ) ;
#162 = VECTOR ( 'NONE', #53, 1000.000000000000114 ) ;
#163 = FACE_BOUND ( 'NONE', #35, .T. ) ;
#164 = SURFACE_STYLE_USAGE ( .BOTH. , #258 ) ;
#165 = EDGE_CURVE ( 'NONE', #108, #70, #294, .T. ) ;
#166 = CLOSED_SHELL ( 'NONE', ( #31, #117, #249, #106, #193, #233, #67, #90, #113, #10 ) ) ;
#167 = DIRECTION ( 'NONE',  ( -0.0000000000000000000, 0.0000000000000000000, 1.000000000000000000 ) ) ;
#168 = CARTESIAN_POINT ( 'NONE',  ( -46.22222222222222143, 0.0000000000000000000, 40.00000000000000000 ) ) ;
#169 = ORIENTED_EDGE ( 'NONE', *, *, #144, .F. ) ;
#170 = PRODUCT ( 'BRM 80x10', 'BRM 80x10', '', ( #19 ) ) ;
#171 = AXIS2_PLACEMENT_3D ( 'NONE', #79, #34, #122 ) ;
#172 = DIRECTION ( 'NONE',  ( 0.0000000000000000000, 0.0000000000000000000, 1.000000000000000000 ) ) ;
#173 = ORIENTED_EDGE ( 'NONE', *, *, #86, .F. ) ;
#174 =( LENGTH_UNIT ( ) NAMED_UNIT ( * ) SI_UNIT ( .MILLI., .METRE. ) );
#175 = CARTESIAN_POINT ( 'NONE',  ( -46.22222222222222143, 4.898587196589413026E-15, -40.00000000000000000 ) ) ;
#176 = AXIS2_PLACEMENT_3D ( 'NONE', #313, #250, #101 ) ;
#177 = FILL_AREA_STYLE_COLOUR ( '', #214 ) ;
#178 = ORIENTED_EDGE ( 'NONE', *, *, #289, .F. ) ;
#179 = EDGE_CURVE ( 'NONE', #284, #310, #312, .T. ) ;
#180 = DIRECTION ( 'NONE',  ( 0.0000000000000000000, 0.0000000000000000000, 1.000000000000000000 ) ) ;
#181 = VERTEX_POINT ( 'NONE', #314 ) ;
#182 = FACE_OUTER_BOUND ( 'NONE', #196, .T. ) ;
#183 = CIRCLE ( 'NONE', #139, 40.50000000000000711 ) ;
#184 = EDGE_CURVE ( 'NONE', #203, #205, #88, .T. ) ;
#185 = DIRECTION ( 'NONE',  ( 0.0000000000000000000, 0.0000000000000000000, -1.000000000000000000 ) ) ;
#186 = CARTESIAN_POINT ( 'NONE',  ( 0.0000000000000000000, 0.0000000000000000000, 0.0000000000000000000 ) ) ;
#187 = DIRECTION ( 'NONE',  ( -1.000000000000000000, 0.0000000000000000000, 0.0000000000000000000 ) ) ;
#188 =( LENGTH_UNIT ( ) NAMED_UNIT ( * ) SI_UNIT ( .MILLI., .METRE. ) );
#189 = DIRECTION ( 'NONE',  ( -1.000000000000000000, -0.0000000000000000000, -0.0000000000000000000 ) ) ;
#190 = CIRCLE ( 'NONE', #171, 40.00000000000000000 ) ;
#191 =( LENGTH_UNIT ( ) NAMED_UNIT ( * ) SI_UNIT ( .MILLI., .METRE. ) );
#192 = ORIENTED_EDGE ( 'NONE', *, *, #184, .F. ) ;
#193 = ADVANCED_FACE ( 'NONE', ( #163, #85 ), #254, .F. ) ;
#194 = ORIENTED_EDGE ( 'NONE', *, *, #236, .T. ) ;
#195 = ORIENTED_EDGE ( 'NONE', *, *, #149, .T. ) ;
#196 = EDGE_LOOP ( 'NONE', ( #87, #198, #224, #5 ) ) ;
#197 = EDGE_CURVE ( 'NONE', #305, #153, #237, .T. ) ;
#198 = ORIENTED_EDGE ( 'NONE', *, *, #56, .T. ) ;
#199 = AXIS2_PLACEMENT_3D ( 'NONE', #272, #159, #60 ) ;
#200 = LINE ( 'NONE', #175, #156 ) ;
#201 = FACE_OUTER_BOUND ( 'NONE', #303, .T. ) ;
#202 = CARTESIAN_POINT ( 'NONE',  ( 153.9829059829059759, 0.0000000000000000000, 60.00000000000000000 ) ) ;
#203 = VERTEX_POINT ( 'NONE', #63 ) ;
#204 = EDGE_CURVE ( 'NONE', #217, #142, #83, .T. ) ;
#205 = VERTEX_POINT ( 'NONE', #209 ) ;
#206 = FACE_OUTER_BOUND ( 'NONE', #66, .T. ) ;
#207 = EDGE_CURVE ( 'NONE', #70, #142, #183, .T. ) ;
#208 = CARTESIAN_POINT ( 'NONE',  ( 153.4829059829059474, 0.0000000000000000000, 40.00000000000000000 ) ) ;
#209 = CARTESIAN_POINT ( 'NONE',  ( 153.9829059829059759, 0.0000000000000000000, -40.50000000000002132 ) ) ;
#210 = LINE ( 'NONE', #302, #127 ) ;
#211 = SURFACE_STYLE_FILL_AREA ( #41 ) ;
#212 = EDGE_LOOP ( 'NONE', ( #80, #42, #26, #92 ) ) ;
#213 = ORIENTED_EDGE ( 'NONE', *, *, #86, .T. ) ;
#214 = COLOUR_RGB ( '',0.7921568627450980005, 0.8196078431372548767, 0.9333333333333333481 ) ;
#215 = PRESENTATION_LAYER_ASSIGNMENT (  '', '', ( #238 ) ) ;
#216 = CARTESIAN_POINT ( 'NONE',  ( -5.517094017094007263, 0.0000000000000000000, 0.0000000000000000000 ) ) ;
#217 = VERTEX_POINT ( 'NONE', #16 ) ;
#218 = LINE ( 'NONE', #232, #3 ) ;
#219 = DIRECTION ( 'NONE',  ( 0.0000000000000000000, 0.0000000000000000000, 1.000000000000000000 ) ) ;
#220 = CARTESIAN_POINT ( 'NONE',  ( -5.517094017094007263, 0.0000000000000000000, 40.00000000000000000 ) ) ;
#221 = EDGE_LOOP ( 'NONE', ( #261, #285 ) ) ;
#222 = DIRECTION ( 'NONE',  ( -1.000000000000000000, 0.0000000000000000000, 0.0000000000000000000 ) ) ;
#223 =( GEOMETRIC_REPRESENTATION_CONTEXT ( 3 ) GLOBAL_UNCERTAINTY_ASSIGNED_CONTEXT ( ( #135 ) ) GLOBAL_UNIT_ASSIGNED_CONTEXT ( ( #174, #290, #291 ) ) REPRESENTATION_CONTEXT ( 'NONE', 'WORKASPACE' ) );
#224 = ORIENTED_EDGE ( 'NONE', *, *, #286, .F. ) ;
#225 = CARTESIAN_POINT ( 'NONE',  ( -46.22222222222222143, 0.0000000000000000000, 0.0000000000000000000 ) ) ;
#226 = CARTESIAN_POINT ( 'NONE',  ( -6.017094017094014369, 0.0000000000000000000, 0.0000000000000000000 ) ) ;
#227 = AXIS2_PLACEMENT_3D ( 'NONE', #268, #151, #81 ) ;
#228 = EDGE_CURVE ( 'NONE', #284, #203, #210, .T. ) ;
#229 = DIRECTION ( 'NONE',  ( 1.000000000000000000, 0.0000000000000000000, 0.0000000000000000000 ) ) ;
#230 = AXIS2_PLACEMENT_3D ( 'NONE', #129, #222, #180 ) ;
#231 = AXIS2_PLACEMENT_3D ( 'NONE', #186, #276, #62 ) ;
#232 = CARTESIAN_POINT ( 'NONE',  ( -46.22222222222222143, 7.347880794884118356E-15, -60.00000000000000000 ) ) ;
#233 = ADVANCED_FACE ( 'NONE', ( #132 ), #89, .T. ) ;
#234 = CARTESIAN_POINT ( 'NONE',  ( 153.9829059829059759, 0.0000000000000000000, 0.0000000000000000000 ) ) ;
#235 = ORIENTED_EDGE ( 'NONE', *, *, #138, .T. ) ;
#236 = EDGE_CURVE ( 'NONE', #153, #181, #253, .T. ) ;
#237 = CIRCLE ( 'NONE', #134, 60.00000000000000000 ) ;
#238 = STYLED_ITEM ( 'NONE', ( #304 ), #58 ) ;
#239 = FACE_BOUND ( 'NONE', #280, .T. ) ;
#240 = ORIENTED_EDGE ( 'NONE', *, *, #179, .T. ) ;
#241 = PRODUCT_DEFINITION_SHAPE ( 'NONE', 'NONE',  #297 ) ;
#242 = CARTESIAN_POINT ( 'NONE',  ( -5.517094017094007263, 0.0000000000000000000, 40.00000000000000000 ) ) ;
#243 = AXIS2_PLACEMENT_3D ( 'NONE', #141, #288, #93 ) ;
#244 = DIRECTION ( 'NONE',  ( 1.000000000000000000, -0.0000000000000000000, -0.0000000000000000000 ) ) ;
#245 = PRODUCT_DEFINITION_FORMATION_WITH_SPECIFIED_SOURCE ( 'ANY', '', #170, .NOT_KNOWN. ) ;
#246 = DIRECTION ( 'NONE',  ( 0.0000000000000000000, 0.0000000000000000000, 1.000000000000000000 ) ) ;
#247 = ORIENTED_EDGE ( 'NONE', *, *, #72, .T. ) ;
#248 = DIRECTION ( 'NONE',  ( 0.7071067811865524577, 0.0000000000000000000, -0.7071067811865426878 ) ) ;
#249 = ADVANCED_FACE ( 'NONE', ( #36 ), #130, .F. ) ;
#250 = DIRECTION ( 'NONE',  ( -1.000000000000000000, -0.0000000000000000000, -0.0000000000000000000 ) ) ;
#251 = DIRECTION ( 'NONE',  ( -1.000000000000000000, -0.0000000000000000000, -0.0000000000000000000 ) ) ;
#252 = PRODUCT_DEFINITION_CONTEXT ( 'detailed design', #120, 'design' ) ;
#253 = LINE ( 'NONE', #158, #257 ) ;
#254 = PLANE ( 'NONE',  #273 ) ;
#255 = ORIENTED_EDGE ( 'NONE', *, *, #149, .F. ) ;
#256 = CONICAL_SURFACE ( 'NONE', #64, 40.50000000000002132, 0.7853981633974415066 ) ;
#257 = VECTOR ( 'NONE', #251, 1000.000000000000000 ) ;
#258 = SURFACE_SIDE_STYLE ('',( #211 ) ) ;
#259 = CARTESIAN_POINT ( 'NONE',  ( -6.017094017094014369, 0.0000000000000000000, 40.50000000000000711 ) ) ;
#260 = ORIENTED_EDGE ( 'NONE', *, *, #184, .T. ) ;
#261 = ORIENTED_EDGE ( 'NONE', *, *, #45, .F. ) ;
#262 = AXIS2_PLACEMENT_3D ( 'NONE', #147, #68, #167 ) ;
#263 = CIRCLE ( 'NONE', #69, 60.00000000000000000 ) ;
#264 = ORIENTED_EDGE ( 'NONE', *, *, #289, .T. ) ;
#265 = DIRECTION ( 'NONE',  ( -1.000000000000000000, -0.0000000000000000000, -0.0000000000000000000 ) ) ;
#266 = CARTESIAN_POINT ( 'NONE',  ( -5.517094017094007263, 0.0000000000000000000, 0.0000000000000000000 ) ) ;
#267 = MECHANICAL_DESIGN_GEOMETRIC_PRESENTATION_REPRESENTATION (  '', ( #11 ), #223 ) ;
#268 = CARTESIAN_POINT ( 'NONE',  ( -46.22222222222222143, 0.0000000000000000000, 0.0000000000000000000 ) ) ;
#269 = ORIENTED_EDGE ( 'NONE', *, *, #56, .F. ) ;
#270 = SURFACE_STYLE_FILL_AREA ( #4 ) ;
#271 = ORIENTED_EDGE ( 'NONE', *, *, #197, .T. ) ;
#272 = CARTESIAN_POINT ( 'NONE',  ( -46.22222222222222143, 0.0000000000000000000, 0.0000000000000000000 ) ) ;
#273 = AXIS2_PLACEMENT_3D ( 'NONE', #107, #161, #40 ) ;
#274 = FILL_AREA_STYLE_COLOUR ( '', #49 ) ;
#275 = CARTESIAN_POINT ( 'NONE',  ( 153.9829059829059759, 0.0000000000000000000, 0.0000000000000000000 ) ) ;
#276 = DIRECTION ( 'NONE',  ( 0.0000000000000000000, 0.0000000000000000000, 1.000000000000000000 ) ) ;
#277 = DIRECTION ( 'NONE',  ( 0.0000000000000000000, 0.0000000000000000000, -1.000000000000000000 ) ) ;
#278 = CARTESIAN_POINT ( 'NONE',  ( -5.517094017094007263, 4.898587196589413026E-15, -40.00000000000000000 ) ) ;
#279 = DIRECTION ( 'NONE',  ( -0.7071067811865474617, 8.659560562354932858E-17, -0.7071067811865474617 ) ) ;
#280 = EDGE_LOOP ( 'NONE', ( #247, #260 ) ) ;
#281 = CARTESIAN_POINT ( 'NONE',  ( 153.9829059829059759, 0.0000000000000000000, 0.0000000000000000000 ) ) ;
#282 = CIRCLE ( 'NONE', #33, 40.50000000000000711 ) ;
#283 = MECHANICAL_DESIGN_GEOMETRIC_PRESENTATION_REPRESENTATION (  '', ( #238 ), #59 ) ;
#284 = VERTEX_POINT ( 'NONE', #208 ) ;
#285 = ORIENTED_EDGE ( 'NONE', *, *, #197, .F. ) ;
#286 = EDGE_CURVE ( 'NONE', #181, #143, #18, .T. ) ;
#287 = EDGE_LOOP ( 'NONE', ( #309, #2, #235, #192 ) ) ;
#288 = DIRECTION ( 'NONE',  ( 1.000000000000000000, -0.0000000000000000000, -0.0000000000000000000 ) ) ;
#289 = EDGE_CURVE ( 'NONE', #108, #217, #140, .T. ) ;
#290 =( NAMED_UNIT ( * ) PLANE_ANGLE_UNIT ( ) SI_UNIT ( $, .RADIAN. ) );
#291 =( NAMED_UNIT ( * ) SI_UNIT ( $, .STERADIAN. ) SOLID_ANGLE_UNIT ( ) );
#292 = CONICAL_SURFACE ( 'NONE', #28, 40.00000000000000000, 0.7853981633974482790 ) ;
#293 = ORIENTED_EDGE ( 'NONE', *, *, #138, .F. ) ;
#294 = LINE ( 'NONE', #242, #162 ) ;
#295 = DIRECTION ( 'NONE',  ( 0.0000000000000000000, 0.0000000000000000000, 1.000000000000000000 ) ) ;
#296 =( NAMED_UNIT ( * ) SI_UNIT ( $, .STERADIAN. ) SOLID_ANGLE_UNIT ( ) );
#297 = PRODUCT_DEFINITION ( 'UNKNOWN', '', #245, #252 ) ;
#298 = DIRECTION ( 'NONE',  ( 0.7071067811865524577, 8.659560562354873694E-17, 0.7071067811865426878 ) ) ;
#299 = CARTESIAN_POINT ( 'NONE',  ( 153.4829059829059474, 4.898587196589413026E-15, -40.00000000000000000 ) ) ;
#300 = UNCERTAINTY_MEASURE_WITH_UNIT (LENGTH_MEASURE( 1.000000000000000082E-05 ), #191, 'distance_accuracy_value', 'NONE');
#301 = CONICAL_SURFACE ( 'NONE', #230, 40.00000000000000000, 0.7853981633974482790 ) ;
#302 = CARTESIAN_POINT ( 'NONE',  ( 153.9829059829059759, 4.959819536546783755E-15, 40.50000000000002132 ) ) ;
#303 = EDGE_LOOP ( 'NONE', ( #104, #178, #110, #173 ) ) ;
#304 = PRESENTATION_STYLE_ASSIGNMENT (( #164 ) ) ;
#305 = VERTEX_POINT ( 'NONE', #105 ) ;
#306 = DIRECTION ( 'NONE',  ( 0.0000000000000000000, 0.0000000000000000000, 1.000000000000000000 ) ) ;
#307 = PRESENTATION_LAYER_ASSIGNMENT (  '', '', ( #11 ) ) ;
#308 = DIRECTION ( 'NONE',  ( 0.0000000000000000000, 0.0000000000000000000, -1.000000000000000000 ) ) ;
#309 = ORIENTED_EDGE ( 'NONE', *, *, #228, .F. ) ;
#310 = VERTEX_POINT ( 'NONE', #299 ) ;
#311 = UNCERTAINTY_MEASURE_WITH_UNIT (LENGTH_MEASURE( 1.000000000000000082E-05 ), #188, 'distance_accuracy_value', 'NONE');
#312 = CIRCLE ( 'NONE', #96, 40.00000000000000000 ) ;
#313 = CARTESIAN_POINT ( 'NONE',  ( -6.017094017094014369, 0.0000000000000000000, 0.0000000000000000000 ) ) ;
#314 = CARTESIAN_POINT ( 'NONE',  ( -6.017094017094014369, 0.0000000000000000000, 60.00000000000000000 ) ) ;
ENDSEC;
END-ISO-10303-21;
