ISO-10303-21;
HEADER;
FILE_DESCRIPTION (( 'STEP AP214' ),
    '1' );
FILE_NAME ('BRM 30x6.step',
    '2020-09-08T10:23:36',
    ( '' ),
    ( '' ),
    'SwSTEP 2.0',
    'SolidWorks 2020',
    '' );
FILE_SCHEMA (( 'AUTOMOTIVE_DESIGN' ));
ENDSEC;

DATA;
#1 = ADVANCED_FACE ( 'NONE', ( #188 ), #270, .F. ) ;
#2 = CARTESIAN_POINT ( 'NONE',  ( 53.98290598290597586, 0.0000000000000000000, 30.00000000000000000 ) ) ;
#3 = EDGE_LOOP ( 'NONE', ( #216, #280, #281, #78 ) ) ;
#4 = FACE_OUTER_BOUND ( 'NONE', #97, .T. ) ;
#5 = CONICAL_SURFACE ( 'NONE', #75, 15.00000000000000000, 0.7853981633974361776 ) ;
#6 = ADVANCED_FACE ( 'NONE', ( #143, #90 ), #159, .F. ) ;
#7 = LINE ( 'NONE', #218, #153 ) ;
#8 = DIRECTION ( 'NONE',  ( -1.000000000000000000, 0.0000000000000000000, 0.0000000000000000000 ) ) ;
#9 = DIRECTION ( 'NONE',  ( -1.000000000000000000, 0.0000000000000000000, -0.0000000000000000000 ) ) ;
#10 = UNCERTAINTY_MEASURE_WITH_UNIT (LENGTH_MEASURE( 1.000000000000000082E-05 ), #130, 'distance_accuracy_value', 'NONE');
#11 = CARTESIAN_POINT ( 'NONE',  ( 53.98290598290597586, 0.0000000000000000000, 0.0000000000000000000 ) ) ;
#12 = DIRECTION ( 'NONE',  ( -1.000000000000000000, -0.0000000000000000000, -0.0000000000000000000 ) ) ;
#13 = ADVANCED_FACE ( 'NONE', ( #74 ), #305, .T. ) ;
#14 = ORIENTED_EDGE ( 'NONE', *, *, #19, .T. ) ;
#15 = VERTEX_POINT ( 'NONE', #73 ) ;
#16 = AXIS2_PLACEMENT_3D ( 'NONE', #206, #138, #165 ) ;
#17 = CARTESIAN_POINT ( 'NONE',  ( -6.017094017094014369, 1.898202538678397557E-15, -15.50000000000000178 ) ) ;
#18 = CIRCLE ( 'NONE', #187, 30.00000000000000000 ) ;
#19 = EDGE_CURVE ( 'NONE', #114, #215, #234, .T. ) ;
#20 = APPLICATION_CONTEXT ( 'automotive_design' ) ;
#21 = SURFACE_STYLE_USAGE ( .BOTH. , #171 ) ;
#22 = ORIENTED_EDGE ( 'NONE', *, *, #174, .F. ) ;
#23 = ORIENTED_EDGE ( 'NONE', *, *, #244, .F. ) ;
#24 = AXIS2_PLACEMENT_3D ( 'NONE', #273, #63, #269 ) ;
#25 = ADVANCED_FACE ( 'NONE', ( #227 ), #44, .T. ) ;
#26 = ORIENTED_EDGE ( 'NONE', *, *, #184, .T. ) ;
#27 = FACE_BOUND ( 'NONE', #208, .T. ) ;
#28 = PRODUCT_DEFINITION_SHAPE ( 'NONE', 'NONE',  #166 ) ;
#29 = CYLINDRICAL_SURFACE ( 'NONE', #235, 15.00000000000000000 ) ;
#30 = EDGE_CURVE ( 'NONE', #189, #215, #43, .T. ) ;
#31 = PRESENTATION_LAYER_ASSIGNMENT (  '', '', ( #182 ) ) ;
#32 = CARTESIAN_POINT ( 'NONE',  ( -5.517094017094000158, 1.836970198721029589E-15, -15.00000000000000000 ) ) ;
#33 = DIRECTION ( 'NONE',  ( 0.0000000000000000000, 0.0000000000000000000, 1.000000000000000000 ) ) ;
#34 = DIRECTION ( 'NONE',  ( 0.0000000000000000000, 0.0000000000000000000, 1.000000000000000000 ) ) ;
#35 = AXIS2_PLACEMENT_3D ( 'NONE', #11, #183, #283 ) ;
#36 = AXIS2_PLACEMENT_3D ( 'NONE', #291, #266, #313 ) ;
#37 = CARTESIAN_POINT ( 'NONE',  ( 53.98290598290597586, 1.898202538678399135E-15, 15.50000000000001243 ) ) ;
#38 =( GEOMETRIC_REPRESENTATION_CONTEXT ( 3 ) GLOBAL_UNCERTAINTY_ASSIGNED_CONTEXT ( ( #276 ) ) GLOBAL_UNIT_ASSIGNED_CONTEXT ( ( #134, #72, #201 ) ) REPRESENTATION_CONTEXT ( 'NONE', 'WORKASPACE' ) );
#39 = PRODUCT ( 'BRM 30x6', 'BRM 30x6', '', ( #45 ) ) ;
#40 = ORIENTED_EDGE ( 'NONE', *, *, #247, .F. ) ;
#41 = ORIENTED_EDGE ( 'NONE', *, *, #220, .F. ) ;
#42 = AXIS2_PLACEMENT_3D ( 'NONE', #193, #178, #100 ) ;
#43 = LINE ( 'NONE', #141, #145 ) ;
#44 = CYLINDRICAL_SURFACE ( 'NONE', #219, 30.00000000000000000 ) ;
#45 = PRODUCT_CONTEXT ( 'NONE', #20, 'mechanical' ) ;
#46 = EDGE_LOOP ( 'NONE', ( #164, #69, #307, #89 ) ) ;
#47 = PLANE ( 'NONE',  #203 ) ;
#48 = AXIS2_PLACEMENT_3D ( 'NONE', #222, #180, #82 ) ;
#49 = MECHANICAL_DESIGN_GEOMETRIC_PRESENTATION_REPRESENTATION (  '', ( #252 ), #38 ) ;
#50 = VERTEX_POINT ( 'NONE', #17 ) ;
#51 = EDGE_CURVE ( 'NONE', #232, #189, #79, .T. ) ;
#52 = ORIENTED_EDGE ( 'NONE', *, *, #296, .T. ) ;
#53 = APPLICATION_CONTEXT ( 'automotive_design' ) ;
#54 = SURFACE_STYLE_FILL_AREA ( #59 ) ;
#55 = DIRECTION ( 'NONE',  ( -1.000000000000000000, -0.0000000000000000000, -0.0000000000000000000 ) ) ;
#56 = ORIENTED_EDGE ( 'NONE', *, *, #51, .T. ) ;
#57 = CIRCLE ( 'NONE', #42, 30.00000000000000000 ) ;
#58 = CARTESIAN_POINT ( 'NONE',  ( -5.517094017094000158, 0.0000000000000000000, 15.00000000000000000 ) ) ;
#59 = FILL_AREA_STYLE ('',( #241 ) ) ;
#60 = DIRECTION ( 'NONE',  ( -1.000000000000000000, 0.0000000000000000000, 0.0000000000000000000 ) ) ;
#61 = LINE ( 'NONE', #294, #230 ) ;
#62 = CARTESIAN_POINT ( 'NONE',  ( 53.98290598290597586, 0.0000000000000000000, 0.0000000000000000000 ) ) ;
#63 = DIRECTION ( 'NONE',  ( -1.000000000000000000, -0.0000000000000000000, -0.0000000000000000000 ) ) ;
#64 = CARTESIAN_POINT ( 'NONE',  ( 53.98290598290597586, 0.0000000000000000000, -15.50000000000001243 ) ) ;
#65 = DIRECTION ( 'NONE',  ( 0.0000000000000000000, 0.0000000000000000000, 1.000000000000000000 ) ) ;
#66 = EDGE_CURVE ( 'NONE', #50, #261, #131, .T. ) ;
#67 = ORIENTED_EDGE ( 'NONE', *, *, #19, .F. ) ;
#68 = CARTESIAN_POINT ( 'NONE',  ( 0.0000000000000000000, 0.0000000000000000000, 0.0000000000000000000 ) ) ;
#69 = ORIENTED_EDGE ( 'NONE', *, *, #51, .F. ) ;
#70 = MECHANICAL_DESIGN_GEOMETRIC_PRESENTATION_REPRESENTATION (  '', ( #182 ), #239 ) ;
#71 = DIRECTION ( 'NONE',  ( 0.0000000000000000000, 0.0000000000000000000, 1.000000000000000000 ) ) ;
#72 =( NAMED_UNIT ( * ) PLANE_ANGLE_UNIT ( ) SI_UNIT ( $, .RADIAN. ) );
#73 = CARTESIAN_POINT ( 'NONE',  ( -6.017094017094014369, 0.0000000000000000000, 30.00000000000000000 ) ) ;
#74 = FACE_OUTER_BOUND ( 'NONE', #285, .T. ) ;
#75 = AXIS2_PLACEMENT_3D ( 'NONE', #226, #250, #181 ) ;
#76 =( NAMED_UNIT ( * ) SI_UNIT ( $, .STERADIAN. ) SOLID_ANGLE_UNIT ( ) );
#77 = VERTEX_POINT ( 'NONE', #2 ) ;
#78 = ORIENTED_EDGE ( 'NONE', *, *, #296, .F. ) ;
#79 = CIRCLE ( 'NONE', #172, 15.00000000000000000 ) ;
#80 =( NAMED_UNIT ( * ) SI_UNIT ( $, .STERADIAN. ) SOLID_ANGLE_UNIT ( ) );
#81 = CARTESIAN_POINT ( 'NONE',  ( -46.22222222222222143, 3.673940397442059178E-15, -30.00000000000000000 ) ) ;
#82 = DIRECTION ( 'NONE',  ( 0.0000000000000000000, 0.0000000000000000000, -1.000000000000000000 ) ) ;
#83 = APPLICATION_PROTOCOL_DEFINITION ( 'draft international standard', 'automotive_design', 1998, #20 ) ;
#84 = COLOUR_RGB ( '',0.7921568627450980005, 0.8196078431372548767, 0.9333333333333333481 ) ;
#85 = COLOUR_RGB ( '',0.7921568627450980005, 0.8196078431372548767, 0.9333333333333333481 ) ;
#86 = DIRECTION ( 'NONE',  ( 1.000000000000000000, 0.0000000000000000000, 0.0000000000000000000 ) ) ;
#87 = ORIENTED_EDGE ( 'NONE', *, *, #220, .T. ) ;
#88 = DIRECTION ( 'NONE',  ( 0.0000000000000000000, 0.0000000000000000000, 1.000000000000000000 ) ) ;
#89 = ORIENTED_EDGE ( 'NONE', *, *, #267, .F. ) ;
#90 = FACE_OUTER_BOUND ( 'NONE', #314, .T. ) ;
#91 = PRESENTATION_STYLE_ASSIGNMENT (( #21 ) ) ;
#92 = EDGE_CURVE ( 'NONE', #147, #160, #167, .T. ) ;
#93 =( GEOMETRIC_REPRESENTATION_CONTEXT ( 3 ) GLOBAL_UNCERTAINTY_ASSIGNED_CONTEXT ( ( #10 ) ) GLOBAL_UNIT_ASSIGNED_CONTEXT ( ( #130, #129, #80 ) ) REPRESENTATION_CONTEXT ( 'NONE', 'WORKASPACE' ) );
#94 = ORIENTED_EDGE ( 'NONE', *, *, #92, .F. ) ;
#95 = ADVANCED_BREP_SHAPE_REPRESENTATION ( 'BRM 30x6', ( #179, #277 ), #93 ) ;
#96 = CYLINDRICAL_SURFACE ( 'NONE', #282, 15.00000000000000000 ) ;
#97 = EDGE_LOOP ( 'NONE', ( #186, #310 ) ) ;
#98 = CARTESIAN_POINT ( 'NONE',  ( -5.517094017094000158, 0.0000000000000000000, 0.0000000000000000000 ) ) ;
#99 = ORIENTED_EDGE ( 'NONE', *, *, #66, .T. ) ;
#100 = DIRECTION ( 'NONE',  ( 0.0000000000000000000, 0.0000000000000000000, 1.000000000000000000 ) ) ;
#101 = EDGE_CURVE ( 'NONE', #77, #15, #242, .T. ) ;
#102 = VECTOR ( 'NONE', #249, 1000.000000000000000 ) ;
#103 = LINE ( 'NONE', #81, #102 ) ;
#104 = FILL_AREA_STYLE ('',( #127 ) ) ;
#105 = LINE ( 'NONE', #151, #302 ) ;
#106 = DIRECTION ( 'NONE',  ( -1.000000000000000000, -0.0000000000000000000, -0.0000000000000000000 ) ) ;
#107 = CIRCLE ( 'NONE', #140, 15.50000000000000178 ) ;
#108 = LINE ( 'NONE', #272, #209 ) ;
#109 = SURFACE_STYLE_FILL_AREA ( #104 ) ;
#110 = DIRECTION ( 'NONE',  ( 1.000000000000000000, 0.0000000000000000000, 0.0000000000000000000 ) ) ;
#111 = CARTESIAN_POINT ( 'NONE',  ( -6.017094017094014369, 15.00000000000000000, 0.0000000000000000000 ) ) ;
#112 = DIRECTION ( 'NONE',  ( 0.0000000000000000000, 0.0000000000000000000, 1.000000000000000000 ) ) ;
#113 = ORIENTED_EDGE ( 'NONE', *, *, #101, .T. ) ;
#114 = VERTEX_POINT ( 'NONE', #148 ) ;
#115 = DIRECTION ( 'NONE',  ( 1.000000000000000000, -0.0000000000000000000, -0.0000000000000000000 ) ) ;
#116 = ADVANCED_FACE ( 'NONE', ( #27, #4 ), #47, .F. ) ;
#117 =( NAMED_UNIT ( * ) PLANE_ANGLE_UNIT ( ) SI_UNIT ( $, .RADIAN. ) );
#118 = ORIENTED_EDGE ( 'NONE', *, *, #158, .T. ) ;
#119 = DIRECTION ( 'NONE',  ( 1.000000000000000000, 0.0000000000000000000, 0.0000000000000000000 ) ) ;
#120 = ORIENTED_EDGE ( 'NONE', *, *, #228, .F. ) ;
#121 = FACE_OUTER_BOUND ( 'NONE', #3, .T. ) ;
#122 = ORIENTED_EDGE ( 'NONE', *, *, #267, .T. ) ;
#123 = ADVANCED_FACE ( 'NONE', ( #223 ), #5, .F. ) ;
#124 = CARTESIAN_POINT ( 'NONE',  ( 53.48290598290597586, 1.836970198721029589E-15, -15.00000000000000000 ) ) ;
#125 = CARTESIAN_POINT ( 'NONE',  ( -5.517094017094000158, 0.0000000000000000000, 0.0000000000000000000 ) ) ;
#126 = AXIS2_PLACEMENT_3D ( 'NONE', #248, #176, #33 ) ;
#127 = FILL_AREA_STYLE_COLOUR ( '', #85 ) ;
#128 = PRODUCT_RELATED_PRODUCT_CATEGORY ( 'part', '', ( #39 ) ) ;
#129 =( NAMED_UNIT ( * ) PLANE_ANGLE_UNIT ( ) SI_UNIT ( $, .RADIAN. ) );
#130 =( LENGTH_UNIT ( ) NAMED_UNIT ( * ) SI_UNIT ( .MILLI., .METRE. ) );
#131 = CIRCLE ( 'NONE', #36, 15.50000000000000178 ) ;
#132 = VECTOR ( 'NONE', #155, 1000.000000000000000 ) ;
#133 = DIRECTION ( 'NONE',  ( 0.0000000000000000000, 0.0000000000000000000, 1.000000000000000000 ) ) ;
#134 =( LENGTH_UNIT ( ) NAMED_UNIT ( * ) SI_UNIT ( .MILLI., .METRE. ) );
#135 = ADVANCED_FACE ( 'NONE', ( #300 ), #275, .F. ) ;
#136 = ORIENTED_EDGE ( 'NONE', *, *, #174, .T. ) ;
#137 = PRESENTATION_STYLE_ASSIGNMENT (( #301 ) ) ;
#138 = DIRECTION ( 'NONE',  ( -1.000000000000000000, -0.0000000000000000000, -0.0000000000000000000 ) ) ;
#139 = AXIS2_PLACEMENT_3D ( 'NONE', #229, #256, #71 ) ;
#140 = AXIS2_PLACEMENT_3D ( 'NONE', #237, #119, #214 ) ;
#141 = CARTESIAN_POINT ( 'NONE',  ( 53.98290598290597586, 1.898202538678399135E-15, 15.50000000000001243 ) ) ;
#142 = EDGE_CURVE ( 'NONE', #232, #147, #105, .T. ) ;
#143 = FACE_BOUND ( 'NONE', #303, .T. ) ;
#144 = DIRECTION ( 'NONE',  ( 0.0000000000000000000, 0.0000000000000000000, -1.000000000000000000 ) ) ;
#145 = VECTOR ( 'NONE', #306, 1000.000000000000000 ) ;
#146 = ORIENTED_EDGE ( 'NONE', *, *, #101, .F. ) ;
#147 = VERTEX_POINT ( 'NONE', #32 ) ;
#148 = CARTESIAN_POINT ( 'NONE',  ( 53.98290598290597586, 0.0000000000000000000, -15.50000000000001243 ) ) ;
#149 = CIRCLE ( 'NONE', #311, 30.00000000000000000 ) ;
#150 = EDGE_LOOP ( 'NONE', ( #210, #56, #52, #136 ) ) ;
#151 = CARTESIAN_POINT ( 'NONE',  ( -46.22222222222222143, 1.836970198721029589E-15, -15.00000000000000000 ) ) ;
#152 = EDGE_CURVE ( 'NONE', #240, #77, #149, .T. ) ;
#153 = VECTOR ( 'NONE', #246, 1000.000000000000000 ) ;
#154 = FACE_OUTER_BOUND ( 'NONE', #150, .T. ) ;
#155 = DIRECTION ( 'NONE',  ( 0.7071067811865389130, 0.0000000000000000000, -0.7071067811865561215 ) ) ;
#156 = CARTESIAN_POINT ( 'NONE',  ( -6.017094017094014369, 0.0000000000000000000, 15.50000000000000178 ) ) ;
#157 = CARTESIAN_POINT ( 'NONE',  ( 53.98290598290597586, 0.0000000000000000000, 0.0000000000000000000 ) ) ;
#158 = EDGE_CURVE ( 'NONE', #15, #257, #299, .T. ) ;
#159 = PLANE ( 'NONE',  #264 ) ;
#160 = VERTEX_POINT ( 'NONE', #58 ) ;
#161 = APPLICATION_PROTOCOL_DEFINITION ( 'draft international standard', 'automotive_design', 1998, #53 ) ;
#162 = CARTESIAN_POINT ( 'NONE',  ( -46.22222222222222143, 0.0000000000000000000, 0.0000000000000000000 ) ) ;
#163 = SHAPE_DEFINITION_REPRESENTATION ( #28, #95 ) ;
#164 = ORIENTED_EDGE ( 'NONE', *, *, #30, .F. ) ;
#165 = DIRECTION ( 'NONE',  ( 0.0000000000000000000, 0.0000000000000000000, 1.000000000000000000 ) ) ;
#166 = PRODUCT_DEFINITION ( 'UNKNOWN', '', #308, #284 ) ;
#167 = CIRCLE ( 'NONE', #255, 15.00000000000000000 ) ;
#168 = DIRECTION ( 'NONE',  ( -1.000000000000000000, 0.0000000000000000000, 0.0000000000000000000 ) ) ;
#169 = EDGE_LOOP ( 'NONE', ( #254, #263, #231, #146 ) ) ;
#170 = DIRECTION ( 'NONE',  ( 0.0000000000000000000, 0.0000000000000000000, 1.000000000000000000 ) ) ;
#171 = SURFACE_SIDE_STYLE ('',( #54 ) ) ;
#172 = AXIS2_PLACEMENT_3D ( 'NONE', #233, #115, #88 ) ;
#173 = CARTESIAN_POINT ( 'NONE',  ( -6.017094017094014369, 3.673940397442059178E-15, -30.00000000000000000 ) ) ;
#174 = EDGE_CURVE ( 'NONE', #160, #147, #198, .T. ) ;
#175 = DIRECTION ( 'NONE',  ( 0.0000000000000000000, 0.0000000000000000000, 1.000000000000000000 ) ) ;
#176 = DIRECTION ( 'NONE',  ( 1.000000000000000000, -0.0000000000000000000, -0.0000000000000000000 ) ) ;
#177 = DIRECTION ( 'NONE',  ( -1.000000000000000000, -0.0000000000000000000, -0.0000000000000000000 ) ) ;
#178 = DIRECTION ( 'NONE',  ( -1.000000000000000000, -0.0000000000000000000, -0.0000000000000000000 ) ) ;
#179 = MANIFOLD_SOLID_BREP ( 'Chamfer1', #238 ) ;
#180 = DIRECTION ( 'NONE',  ( 1.000000000000000000, -0.0000000000000000000, -0.0000000000000000000 ) ) ;
#181 = DIRECTION ( 'NONE',  ( 0.0000000000000000000, 0.0000000000000000000, 1.000000000000000000 ) ) ;
#182 = STYLED_ITEM ( 'NONE', ( #91 ), #179 ) ;
#183 = DIRECTION ( 'NONE',  ( 1.000000000000000000, -0.0000000000000000000, -0.0000000000000000000 ) ) ;
#184 = EDGE_CURVE ( 'NONE', #261, #50, #107, .T. ) ;
#185 = ORIENTED_EDGE ( 'NONE', *, *, #247, .T. ) ;
#186 = ORIENTED_EDGE ( 'NONE', *, *, #213, .F. ) ;
#187 = AXIS2_PLACEMENT_3D ( 'NONE', #196, #106, #133 ) ;
#188 = FACE_OUTER_BOUND ( 'NONE', #46, .T. ) ;
#189 = VERTEX_POINT ( 'NONE', #312 ) ;
#190 = ORIENTED_EDGE ( 'NONE', *, *, #152, .T. ) ;
#191 = CARTESIAN_POINT ( 'NONE',  ( -46.22222222222222143, 0.0000000000000000000, 0.0000000000000000000 ) ) ;
#192 = ORIENTED_EDGE ( 'NONE', *, *, #66, .F. ) ;
#193 = CARTESIAN_POINT ( 'NONE',  ( -6.017094017094014369, 0.0000000000000000000, 0.0000000000000000000 ) ) ;
#194 = AXIS2_PLACEMENT_3D ( 'NONE', #62, #245, #175 ) ;
#195 = DIRECTION ( 'NONE',  ( -0.7071067811865561215, 0.0000000000000000000, 0.7071067811865389130 ) ) ;
#196 = CARTESIAN_POINT ( 'NONE',  ( 53.98290598290597586, 0.0000000000000000000, 0.0000000000000000000 ) ) ;
#197 = DIRECTION ( 'NONE',  ( -1.000000000000000000, -0.0000000000000000000, -0.0000000000000000000 ) ) ;
#198 = CIRCLE ( 'NONE', #225, 15.00000000000000000 ) ;
#199 = DIRECTION ( 'NONE',  ( 0.0000000000000000000, 0.0000000000000000000, 1.000000000000000000 ) ) ;
#200 = UNCERTAINTY_MEASURE_WITH_UNIT (LENGTH_MEASURE( 1.000000000000000082E-05 ), #260, 'distance_accuracy_value', 'NONE');
#201 =( NAMED_UNIT ( * ) SI_UNIT ( $, .STERADIAN. ) SOLID_ANGLE_UNIT ( ) );
#202 = ORIENTED_EDGE ( 'NONE', *, *, #292, .F. ) ;
#203 = AXIS2_PLACEMENT_3D ( 'NONE', #224, #9, #268 ) ;
#204 = ADVANCED_FACE ( 'NONE', ( #121 ), #96, .F. ) ;
#205 = ORIENTED_EDGE ( 'NONE', *, *, #228, .T. ) ;
#206 = CARTESIAN_POINT ( 'NONE',  ( -46.22222222222222143, 0.0000000000000000000, 0.0000000000000000000 ) ) ;
#207 = DIRECTION ( 'NONE',  ( 0.0000000000000000000, 0.0000000000000000000, 1.000000000000000000 ) ) ;
#208 = EDGE_LOOP ( 'NONE', ( #14, #122 ) ) ;
#209 = VECTOR ( 'NONE', #274, 1000.000000000000000 ) ;
#210 = ORIENTED_EDGE ( 'NONE', *, *, #142, .F. ) ;
#211 = DIRECTION ( 'NONE',  ( 0.0000000000000000000, 0.0000000000000000000, -1.000000000000000000 ) ) ;
#212 = ORIENTED_EDGE ( 'NONE', *, *, #30, .T. ) ;
#213 = EDGE_CURVE ( 'NONE', #77, #240, #18, .T. ) ;
#214 = DIRECTION ( 'NONE',  ( 0.0000000000000000000, 0.0000000000000000000, -1.000000000000000000 ) ) ;
#215 = VERTEX_POINT ( 'NONE', #37 ) ;
#216 = ORIENTED_EDGE ( 'NONE', *, *, #292, .T. ) ;
#217 = DIRECTION ( 'NONE',  ( 0.0000000000000000000, 0.0000000000000000000, -1.000000000000000000 ) ) ;
#218 = CARTESIAN_POINT ( 'NONE',  ( -46.22222222222222143, 0.0000000000000000000, 15.00000000000000000 ) ) ;
#219 = AXIS2_PLACEMENT_3D ( 'NONE', #162, #12, #112 ) ;
#220 = EDGE_CURVE ( 'NONE', #257, #15, #57, .T. ) ;
#221 = FACE_OUTER_BOUND ( 'NONE', #309, .T. ) ;
#222 = CARTESIAN_POINT ( 'NONE',  ( 53.98290598290597586, 0.0000000000000000000, 0.0000000000000000000 ) ) ;
#223 = FACE_OUTER_BOUND ( 'NONE', #253, .T. ) ;
#224 = CARTESIAN_POINT ( 'NONE',  ( 53.98290598290597586, 30.00000000000000000, 0.0000000000000000000 ) ) ;
#225 = AXIS2_PLACEMENT_3D ( 'NONE', #289, #168, #217 ) ;
#226 = CARTESIAN_POINT ( 'NONE',  ( -5.517094017094000158, 0.0000000000000000000, 0.0000000000000000000 ) ) ;
#227 = FACE_OUTER_BOUND ( 'NONE', #169, .T. ) ;
#228 = EDGE_CURVE ( 'NONE', #160, #261, #61, .T. ) ;
#229 = CARTESIAN_POINT ( 'NONE',  ( 53.98290598290597586, 0.0000000000000000000, 0.0000000000000000000 ) ) ;
#230 = VECTOR ( 'NONE', #195, 1000.000000000000000 ) ;
#231 = ORIENTED_EDGE ( 'NONE', *, *, #158, .F. ) ;
#232 = VERTEX_POINT ( 'NONE', #124 ) ;
#233 = CARTESIAN_POINT ( 'NONE',  ( 53.48290598290597586, 0.0000000000000000000, 0.0000000000000000000 ) ) ;
#234 = CIRCLE ( 'NONE', #139, 15.50000000000001243 ) ;
#235 = AXIS2_PLACEMENT_3D ( 'NONE', #295, #298, #199 ) ;
#236 = EDGE_LOOP ( 'NONE', ( #40, #22, #205, #192 ) ) ;
#237 = CARTESIAN_POINT ( 'NONE',  ( -6.017094017094014369, 0.0000000000000000000, 0.0000000000000000000 ) ) ;
#238 = CLOSED_SHELL ( 'NONE', ( #278, #123, #204, #25, #6, #13, #116, #271, #135, #1 ) ) ;
#239 =( GEOMETRIC_REPRESENTATION_CONTEXT ( 3 ) GLOBAL_UNCERTAINTY_ASSIGNED_CONTEXT ( ( #200 ) ) GLOBAL_UNIT_ASSIGNED_CONTEXT ( ( #260, #117, #76 ) ) REPRESENTATION_CONTEXT ( 'NONE', 'WORKASPACE' ) );
#240 = VERTEX_POINT ( 'NONE', #243 ) ;
#241 = FILL_AREA_STYLE_COLOUR ( '', #84 ) ;
#242 = LINE ( 'NONE', #262, #251 ) ;
#243 = CARTESIAN_POINT ( 'NONE',  ( 53.98290598290597586, 3.673940397442059178E-15, -30.00000000000000000 ) ) ;
#244 = EDGE_CURVE ( 'NONE', #232, #114, #297, .T. ) ;
#245 = DIRECTION ( 'NONE',  ( -1.000000000000000000, -0.0000000000000000000, -0.0000000000000000000 ) ) ;
#246 = DIRECTION ( 'NONE',  ( -1.000000000000000000, -0.0000000000000000000, -0.0000000000000000000 ) ) ;
#247 = EDGE_CURVE ( 'NONE', #147, #50, #108, .T. ) ;
#248 = CARTESIAN_POINT ( 'NONE',  ( 53.48290598290597586, 0.0000000000000000000, 0.0000000000000000000 ) ) ;
#249 = DIRECTION ( 'NONE',  ( -1.000000000000000000, -0.0000000000000000000, -0.0000000000000000000 ) ) ;
#250 = DIRECTION ( 'NONE',  ( -1.000000000000000000, 0.0000000000000000000, 0.0000000000000000000 ) ) ;
#251 = VECTOR ( 'NONE', #55, 1000.000000000000000 ) ;
#252 = STYLED_ITEM ( 'NONE', ( #137 ), #95 ) ;
#253 = EDGE_LOOP ( 'NONE', ( #94, #185, #288, #120 ) ) ;
#254 = ORIENTED_EDGE ( 'NONE', *, *, #213, .T. ) ;
#255 = AXIS2_PLACEMENT_3D ( 'NONE', #98, #60, #211 ) ;
#256 = DIRECTION ( 'NONE',  ( -1.000000000000000000, -0.0000000000000000000, -0.0000000000000000000 ) ) ;
#257 = VERTEX_POINT ( 'NONE', #173 ) ;
#258 = CIRCLE ( 'NONE', #126, 15.00000000000000000 ) ;
#259 = PRESENTATION_LAYER_ASSIGNMENT (  '', '', ( #252 ) ) ;
#260 =( LENGTH_UNIT ( ) NAMED_UNIT ( * ) SI_UNIT ( .MILLI., .METRE. ) );
#261 = VERTEX_POINT ( 'NONE', #156 ) ;
#262 = CARTESIAN_POINT ( 'NONE',  ( -46.22222222222222143, 0.0000000000000000000, 30.00000000000000000 ) ) ;
#263 = ORIENTED_EDGE ( 'NONE', *, *, #286, .T. ) ;
#264 = AXIS2_PLACEMENT_3D ( 'NONE', #111, #86, #144 ) ;
#265 = CIRCLE ( 'NONE', #194, 15.50000000000001243 ) ;
#266 = DIRECTION ( 'NONE',  ( 1.000000000000000000, 0.0000000000000000000, 0.0000000000000000000 ) ) ;
#267 = EDGE_CURVE ( 'NONE', #215, #114, #265, .T. ) ;
#268 = DIRECTION ( 'NONE',  ( -0.0000000000000000000, 0.0000000000000000000, 1.000000000000000000 ) ) ;
#269 = DIRECTION ( 'NONE',  ( 0.0000000000000000000, 0.0000000000000000000, 1.000000000000000000 ) ) ;
#270 = CONICAL_SURFACE ( 'NONE', #35, 15.50000000000001243, 0.7853981633974604915 ) ;
#271 = ADVANCED_FACE ( 'NONE', ( #154 ), #29, .F. ) ;
#272 = CARTESIAN_POINT ( 'NONE',  ( -5.517094017094000158, 1.836970198721029589E-15, -15.00000000000000000 ) ) ;
#273 = CARTESIAN_POINT ( 'NONE',  ( -6.017094017094014369, 0.0000000000000000000, 0.0000000000000000000 ) ) ;
#274 = DIRECTION ( 'NONE',  ( -0.7071067811865561215, 8.659560562354828088E-17, -0.7071067811865389130 ) ) ;
#275 = CONICAL_SURFACE ( 'NONE', #293, 15.00000000000000000, 0.7853981633974361776 ) ;
#276 = UNCERTAINTY_MEASURE_WITH_UNIT (LENGTH_MEASURE( 1.000000000000000082E-05 ), #134, 'distance_accuracy_value', 'NONE');
#277 = AXIS2_PLACEMENT_3D ( 'NONE', #68, #207, #110 ) ;
#278 = ADVANCED_FACE ( 'NONE', ( #221 ), #287, .F. ) ;
#279 = ORIENTED_EDGE ( 'NONE', *, *, #286, .F. ) ;
#280 = ORIENTED_EDGE ( 'NONE', *, *, #142, .T. ) ;
#281 = ORIENTED_EDGE ( 'NONE', *, *, #92, .T. ) ;
#282 = AXIS2_PLACEMENT_3D ( 'NONE', #191, #290, #170 ) ;
#283 = DIRECTION ( 'NONE',  ( 0.0000000000000000000, 0.0000000000000000000, -1.000000000000000000 ) ) ;
#284 = PRODUCT_DEFINITION_CONTEXT ( 'detailed design', #53, 'design' ) ;
#285 = EDGE_LOOP ( 'NONE', ( #279, #190, #113, #41 ) ) ;
#286 = EDGE_CURVE ( 'NONE', #240, #257, #103, .T. ) ;
#287 = CONICAL_SURFACE ( 'NONE', #48, 15.50000000000001243, 0.7853981633974604915 ) ;
#288 = ORIENTED_EDGE ( 'NONE', *, *, #184, .F. ) ;
#289 = CARTESIAN_POINT ( 'NONE',  ( -5.517094017094000158, 0.0000000000000000000, 0.0000000000000000000 ) ) ;
#290 = DIRECTION ( 'NONE',  ( -1.000000000000000000, -0.0000000000000000000, -0.0000000000000000000 ) ) ;
#291 = CARTESIAN_POINT ( 'NONE',  ( -6.017094017094014369, 0.0000000000000000000, 0.0000000000000000000 ) ) ;
#292 = EDGE_CURVE ( 'NONE', #189, #232, #258, .T. ) ;
#293 = AXIS2_PLACEMENT_3D ( 'NONE', #125, #8, #34 ) ;
#294 = CARTESIAN_POINT ( 'NONE',  ( -5.517094017094000158, 0.0000000000000000000, 15.00000000000000000 ) ) ;
#295 = CARTESIAN_POINT ( 'NONE',  ( -46.22222222222222143, 0.0000000000000000000, 0.0000000000000000000 ) ) ;
#296 = EDGE_CURVE ( 'NONE', #189, #160, #7, .T. ) ;
#297 = LINE ( 'NONE', #64, #132 ) ;
#298 = DIRECTION ( 'NONE',  ( -1.000000000000000000, -0.0000000000000000000, -0.0000000000000000000 ) ) ;
#299 = CIRCLE ( 'NONE', #24, 30.00000000000000000 ) ;
#300 = FACE_OUTER_BOUND ( 'NONE', #236, .T. ) ;
#301 = SURFACE_STYLE_USAGE ( .BOTH. , #304 ) ;
#302 = VECTOR ( 'NONE', #177, 1000.000000000000000 ) ;
#303 = EDGE_LOOP ( 'NONE', ( #26, #99 ) ) ;
#304 = SURFACE_SIDE_STYLE ('',( #109 ) ) ;
#305 = CYLINDRICAL_SURFACE ( 'NONE', #16, 30.00000000000000000 ) ;
#306 = DIRECTION ( 'NONE',  ( 0.7071067811865389130, 8.659560562355038861E-17, 0.7071067811865561215 ) ) ;
#307 = ORIENTED_EDGE ( 'NONE', *, *, #244, .T. ) ;
#308 = PRODUCT_DEFINITION_FORMATION_WITH_SPECIFIED_SOURCE ( 'ANY', '', #39, .NOT_KNOWN. ) ;
#309 = EDGE_LOOP ( 'NONE', ( #202, #212, #67, #23 ) ) ;
#310 = ORIENTED_EDGE ( 'NONE', *, *, #152, .F. ) ;
#311 = AXIS2_PLACEMENT_3D ( 'NONE', #157, #197, #65 ) ;
#312 = CARTESIAN_POINT ( 'NONE',  ( 53.48290598290597586, 0.0000000000000000000, 15.00000000000000000 ) ) ;
#313 = DIRECTION ( 'NONE',  ( 0.0000000000000000000, 0.0000000000000000000, -1.000000000000000000 ) ) ;
#314 = EDGE_LOOP ( 'NONE', ( #118, #87 ) ) ;
ENDSEC;
END-ISO-10303-21;
