ISO-10303-21;
HEADER;
FILE_DESCRIPTION (( 'STEP AP214' ),
    '1' );
FILE_NAME ('BRM 16x4.step',
    '2020-09-08T10:22:41',
    ( '' ),
    ( '' ),
    'SwSTEP 2.0',
    'SolidWorks 2020',
    '' );
FILE_SCHEMA (( 'AUTOMOTIVE_DESIGN' ));
ENDSEC;

DATA;
#1 = CARTESIAN_POINT ( 'NONE',  ( -6.017094017094014369, 2.204364238465235428E-15, -18.00000000000000000 ) ) ;
#2 = AXIS2_PLACEMENT_3D ( 'NONE', #243, #139, #218 ) ;
#3 = CIRCLE ( 'NONE', #60, 8.500000000000014211 ) ;
#4 = CARTESIAN_POINT ( 'NONE',  ( -6.017094017094014369, 0.0000000000000000000, 0.0000000000000000000 ) ) ;
#5 =( NAMED_UNIT ( * ) SI_UNIT ( $, .STERADIAN. ) SOLID_ANGLE_UNIT ( ) );
#6 = PLANE ( 'NONE',  #292 ) ;
#7 = AXIS2_PLACEMENT_3D ( 'NONE', #297, #271, #26 ) ;
#8 = AXIS2_PLACEMENT_3D ( 'NONE', #158, #304, #255 ) ;
#9 = DIRECTION ( 'NONE',  ( 0.0000000000000000000, 0.0000000000000000000, 1.000000000000000000 ) ) ;
#10 = PRODUCT ( 'BRM 16x4', 'BRM 16x4', '', ( #239 ) ) ;
#11 = EDGE_CURVE ( 'NONE', #267, #52, #197, .T. ) ;
#12 = DIRECTION ( 'NONE',  ( 0.0000000000000000000, 0.0000000000000000000, 1.000000000000000000 ) ) ;
#13 = DIRECTION ( 'NONE',  ( 0.7071067811865426878, 0.0000000000000000000, -0.7071067811865524577 ) ) ;
#14 = CYLINDRICAL_SURFACE ( 'NONE', #91, 8.000000000000000000 ) ;
#15 = FACE_OUTER_BOUND ( 'NONE', #50, .T. ) ;
#16 = SURFACE_STYLE_USAGE ( .BOTH. , #92 ) ;
#17 = ADVANCED_FACE ( 'NONE', ( #192, #253 ), #6, .F. ) ;
#18 = ORIENTED_EDGE ( 'NONE', *, *, #140, .T. ) ;
#19 = DIRECTION ( 'NONE',  ( -1.000000000000000000, -0.0000000000000000000, -0.0000000000000000000 ) ) ;
#20 = ORIENTED_EDGE ( 'NONE', *, *, #233, .T. ) ;
#21 =( NAMED_UNIT ( * ) PLANE_ANGLE_UNIT ( ) SI_UNIT ( $, .RADIAN. ) );
#22 = ORIENTED_EDGE ( 'NONE', *, *, #131, .F. ) ;
#23 = DIRECTION ( 'NONE',  ( -1.000000000000000000, -0.0000000000000000000, -0.0000000000000000000 ) ) ;
#24 = ORIENTED_EDGE ( 'NONE', *, *, #140, .F. ) ;
#25 = VECTOR ( 'NONE', #211, 1000.000000000000000 ) ;
#26 = DIRECTION ( 'NONE',  ( 0.0000000000000000000, 0.0000000000000000000, 1.000000000000000000 ) ) ;
#27 = EDGE_CURVE ( 'NONE', #73, #242, #97, .T. ) ;
#28 = CIRCLE ( 'NONE', #2, 8.000000000000000000 ) ;
#29 = DIRECTION ( 'NONE',  ( 0.0000000000000000000, 0.0000000000000000000, 1.000000000000000000 ) ) ;
#30 = DIRECTION ( 'NONE',  ( 1.000000000000000000, 0.0000000000000000000, 0.0000000000000000000 ) ) ;
#31 = LINE ( 'NONE', #129, #165 ) ;
#32 = AXIS2_PLACEMENT_3D ( 'NONE', #301, #109, #9 ) ;
#33 = PRODUCT_DEFINITION_FORMATION_WITH_SPECIFIED_SOURCE ( 'ANY', '', #10, .NOT_KNOWN. ) ;
#34 = EDGE_CURVE ( 'NONE', #71, #266, #147, .T. ) ;
#35 = APPLICATION_CONTEXT ( 'automotive_design' ) ;
#36 = DIRECTION ( 'NONE',  ( 0.0000000000000000000, 0.0000000000000000000, 1.000000000000000000 ) ) ;
#37 = DIRECTION ( 'NONE',  ( -1.000000000000000000, -0.0000000000000000000, -0.0000000000000000000 ) ) ;
#38 = ADVANCED_BREP_SHAPE_REPRESENTATION ( 'BRM 16x4', ( #83, #287 ), #122 ) ;
#39 = FACE_OUTER_BOUND ( 'NONE', #119, .T. ) ;
#40 = VECTOR ( 'NONE', #102, 1000.000000000000114 ) ;
#41 = CARTESIAN_POINT ( 'NONE',  ( 25.98290598290598652, 0.0000000000000000000, 0.0000000000000000000 ) ) ;
#42 = PRODUCT_RELATED_PRODUCT_CATEGORY ( 'part', '', ( #10 ) ) ;
#43 =( NAMED_UNIT ( * ) PLANE_ANGLE_UNIT ( ) SI_UNIT ( $, .RADIAN. ) );
#44 = EDGE_CURVE ( 'NONE', #266, #52, #74, .T. ) ;
#45 = VERTEX_POINT ( 'NONE', #172 ) ;
#46 = AXIS2_PLACEMENT_3D ( 'NONE', #84, #182, #203 ) ;
#47 = MECHANICAL_DESIGN_GEOMETRIC_PRESENTATION_REPRESENTATION (  '', ( #223 ), #103 ) ;
#48 = CONICAL_SURFACE ( 'NONE', #138, 8.500000000000007105, 0.7853981633974552734 ) ;
#49 = ORIENTED_EDGE ( 'NONE', *, *, #55, .T. ) ;
#50 = EDGE_LOOP ( 'NONE', ( #51, #107, #98, #93 ) ) ;
#51 = ORIENTED_EDGE ( 'NONE', *, *, #308, .F. ) ;
#52 = VERTEX_POINT ( 'NONE', #171 ) ;
#53 = AXIS2_PLACEMENT_3D ( 'NONE', #232, #88, #36 ) ;
#54 = SURFACE_SIDE_STYLE ('',( #314 ) ) ;
#55 = EDGE_CURVE ( 'NONE', #45, #215, #194, .T. ) ;
#56 = PRESENTATION_STYLE_ASSIGNMENT (( #269 ) ) ;
#57 = CYLINDRICAL_SURFACE ( 'NONE', #32, 8.000000000000000000 ) ;
#58 = EDGE_LOOP ( 'NONE', ( #150, #290 ) ) ;
#59 = DIRECTION ( 'NONE',  ( 0.0000000000000000000, 0.0000000000000000000, 1.000000000000000000 ) ) ;
#60 = AXIS2_PLACEMENT_3D ( 'NONE', #41, #37, #12 ) ;
#61 = CARTESIAN_POINT ( 'NONE',  ( -5.517094017094007263, 0.0000000000000000000, 0.0000000000000000000 ) ) ;
#62 = FACE_BOUND ( 'NONE', #283, .T. ) ;
#63 = DIRECTION ( 'NONE',  ( 0.0000000000000000000, 0.0000000000000000000, -1.000000000000000000 ) ) ;
#64 = CLOSED_SHELL ( 'NONE', ( #256, #85, #105, #67, #17, #300, #247, #187, #212, #270 ) ) ;
#65 = DIRECTION ( 'NONE',  ( -1.000000000000000000, -0.0000000000000000000, -0.0000000000000000000 ) ) ;
#66 = ORIENTED_EDGE ( 'NONE', *, *, #173, .F. ) ;
#67 = ADVANCED_FACE ( 'NONE', ( #174 ), #148, .T. ) ;
#68 = DIRECTION ( 'NONE',  ( 0.0000000000000000000, 0.0000000000000000000, 1.000000000000000000 ) ) ;
#69 = ORIENTED_EDGE ( 'NONE', *, *, #200, .T. ) ;
#70 = SHAPE_DEFINITION_REPRESENTATION ( #156, #38 ) ;
#71 = VERTEX_POINT ( 'NONE', #106 ) ;
#72 = VERTEX_POINT ( 'NONE', #252 ) ;
#73 = VERTEX_POINT ( 'NONE', #1 ) ;
#74 = CIRCLE ( 'NONE', #152, 8.500000000000007105 ) ;
#75 = DIRECTION ( 'NONE',  ( 0.0000000000000000000, 0.0000000000000000000, -1.000000000000000000 ) ) ;
#76 = EDGE_CURVE ( 'NONE', #215, #73, #128, .T. ) ;
#77 = ORIENTED_EDGE ( 'NONE', *, *, #276, .F. ) ;
#78 = CARTESIAN_POINT ( 'NONE',  ( -5.517094017094007263, 0.0000000000000000000, 0.0000000000000000000 ) ) ;
#79 = DIRECTION ( 'NONE',  ( -1.000000000000000000, 0.0000000000000000000, 0.0000000000000000000 ) ) ;
#80 = AXIS2_PLACEMENT_3D ( 'NONE', #231, #275, #59 ) ;
#81 = DIRECTION ( 'NONE',  ( -1.000000000000000000, -0.0000000000000000000, -0.0000000000000000000 ) ) ;
#82 = DIRECTION ( 'NONE',  ( 0.0000000000000000000, 0.0000000000000000000, -1.000000000000000000 ) ) ;
#83 = MANIFOLD_SOLID_BREP ( 'Chamfer1', #64 ) ;
#84 = CARTESIAN_POINT ( 'NONE',  ( -5.517094017094007263, 0.0000000000000000000, 0.0000000000000000000 ) ) ;
#85 = ADVANCED_FACE ( 'NONE', ( #125 ), #159, .F. ) ;
#86 = CIRCLE ( 'NONE', #108, 8.000000000000000000 ) ;
#87 = CARTESIAN_POINT ( 'NONE',  ( 25.98290598290598652, 1.040949779275251915E-15, 8.500000000000014211 ) ) ;
#88 = DIRECTION ( 'NONE',  ( 1.000000000000000000, -0.0000000000000000000, -0.0000000000000000000 ) ) ;
#89 = UNCERTAINTY_MEASURE_WITH_UNIT (LENGTH_MEASURE( 1.000000000000000082E-05 ), #95, 'distance_accuracy_value', 'NONE');
#90 = DIRECTION ( 'NONE',  ( 1.000000000000000000, -0.0000000000000000000, -0.0000000000000000000 ) ) ;
#91 = AXIS2_PLACEMENT_3D ( 'NONE', #230, #151, #258 ) ;
#92 = SURFACE_SIDE_STYLE ('',( #241 ) ) ;
#93 = ORIENTED_EDGE ( 'NONE', *, *, #313, .T. ) ;
#94 = VERTEX_POINT ( 'NONE', #176 ) ;
#95 =( LENGTH_UNIT ( ) NAMED_UNIT ( * ) SI_UNIT ( .MILLI., .METRE. ) );
#96 =( LENGTH_UNIT ( ) NAMED_UNIT ( * ) SI_UNIT ( .MILLI., .METRE. ) );
#97 = CIRCLE ( 'NONE', #286, 18.00000000000000000 ) ;
#98 = ORIENTED_EDGE ( 'NONE', *, *, #284, .T. ) ;
#99 = PRESENTATION_STYLE_ASSIGNMENT (( #16 ) ) ;
#100 = ORIENTED_EDGE ( 'NONE', *, *, #76, .F. ) ;
#101 = PRODUCT_DEFINITION ( 'UNKNOWN', '', #33, #296 ) ;
#102 = DIRECTION ( 'NONE',  ( -0.7071067811865474617, 0.0000000000000000000, 0.7071067811865474617 ) ) ;
#103 =( GEOMETRIC_REPRESENTATION_CONTEXT ( 3 ) GLOBAL_UNCERTAINTY_ASSIGNED_CONTEXT ( ( #294 ) ) GLOBAL_UNIT_ASSIGNED_CONTEXT ( ( #293, #227, #5 ) ) REPRESENTATION_CONTEXT ( 'NONE', 'WORKASPACE' ) );
#104 = CARTESIAN_POINT ( 'NONE',  ( -5.517094017094007263, 9.797174393178825657E-16, -8.000000000000000000 ) ) ;
#105 = ADVANCED_FACE ( 'NONE', ( #273 ), #57, .F. ) ;
#106 = CARTESIAN_POINT ( 'NONE',  ( -5.517094017094007263, 9.797174393178825657E-16, -8.000000000000000000 ) ) ;
#107 = ORIENTED_EDGE ( 'NONE', *, *, #163, .T. ) ;
#108 = AXIS2_PLACEMENT_3D ( 'NONE', #201, #90, #235 ) ;
#109 = DIRECTION ( 'NONE',  ( -1.000000000000000000, -0.0000000000000000000, -0.0000000000000000000 ) ) ;
#110 = FACE_OUTER_BOUND ( 'NONE', #250, .T. ) ;
#111 = EDGE_CURVE ( 'NONE', #72, #143, #303, .T. ) ;
#112 = CARTESIAN_POINT ( 'NONE',  ( 25.98290598290597941, 2.204364238465235428E-15, -18.00000000000000000 ) ) ;
#113 = DIRECTION ( 'NONE',  ( 1.000000000000000000, -0.0000000000000000000, -0.0000000000000000000 ) ) ;
#114 = CARTESIAN_POINT ( 'NONE',  ( -6.017094017094014369, 0.0000000000000000000, 0.0000000000000000000 ) ) ;
#115 = CARTESIAN_POINT ( 'NONE',  ( -46.22222222222222143, 0.0000000000000000000, 8.000000000000000000 ) ) ;
#116 = ORIENTED_EDGE ( 'NONE', *, *, #11, .F. ) ;
#117 = COLOUR_RGB ( '',0.7921568627450980005, 0.8196078431372548767, 0.9333333333333333481 ) ;
#118 = ORIENTED_EDGE ( 'NONE', *, *, #196, .T. ) ;
#119 = EDGE_LOOP ( 'NONE', ( #219, #162 ) ) ;
#120 = DIRECTION ( 'NONE',  ( 0.7071067811865426878, 8.659560562354994488E-17, 0.7071067811865524577 ) ) ;
#121 = EDGE_LOOP ( 'NONE', ( #237, #142, #186, #265 ) ) ;
#122 =( GEOMETRIC_REPRESENTATION_CONTEXT ( 3 ) GLOBAL_UNCERTAINTY_ASSIGNED_CONTEXT ( ( #89 ) ) GLOBAL_UNIT_ASSIGNED_CONTEXT ( ( #95, #43, #311 ) ) REPRESENTATION_CONTEXT ( 'NONE', 'WORKASPACE' ) );
#123 = ORIENTED_EDGE ( 'NONE', *, *, #131, .T. ) ;
#124 = DIRECTION ( 'NONE',  ( 0.0000000000000000000, 0.0000000000000000000, 1.000000000000000000 ) ) ;
#125 = FACE_OUTER_BOUND ( 'NONE', #246, .T. ) ;
#126 = CONICAL_SURFACE ( 'NONE', #46, 8.000000000000000000, 0.7853981633974482790 ) ;
#127 = FILL_AREA_STYLE_COLOUR ( '', #144 ) ;
#128 = LINE ( 'NONE', #198, #245 ) ;
#129 = CARTESIAN_POINT ( 'NONE',  ( 25.98290598290597941, 1.040949779275251126E-15, 8.500000000000007105 ) ) ;
#130 = STYLED_ITEM ( 'NONE', ( #99 ), #38 ) ;
#131 = EDGE_CURVE ( 'NONE', #143, #167, #3, .T. ) ;
#132 = CARTESIAN_POINT ( 'NONE',  ( 25.98290598290597941, 0.0000000000000000000, 0.0000000000000000000 ) ) ;
#133 = DIRECTION ( 'NONE',  ( 0.0000000000000000000, 0.0000000000000000000, 1.000000000000000000 ) ) ;
#134 = DIRECTION ( 'NONE',  ( -0.0000000000000000000, 0.0000000000000000000, 1.000000000000000000 ) ) ;
#135 = DIRECTION ( 'NONE',  ( -1.000000000000000000, 0.0000000000000000000, -0.0000000000000000000 ) ) ;
#136 = FILL_AREA_STYLE_COLOUR ( '', #117 ) ;
#137 = EDGE_LOOP ( 'NONE', ( #100, #307, #118, #213 ) ) ;
#138 = AXIS2_PLACEMENT_3D ( 'NONE', #132, #178, #207 ) ;
#139 = DIRECTION ( 'NONE',  ( -1.000000000000000000, 0.0000000000000000000, 0.0000000000000000000 ) ) ;
#140 = EDGE_CURVE ( 'NONE', #167, #143, #229, .T. ) ;
#141 = ORIENTED_EDGE ( 'NONE', *, *, #284, .F. ) ;
#142 = ORIENTED_EDGE ( 'NONE', *, *, #313, .F. ) ;
#143 = VERTEX_POINT ( 'NONE', #155 ) ;
#144 = COLOUR_RGB ( '',0.7921568627450980005, 0.8196078431372548767, 0.9333333333333333481 ) ;
#145 = CIRCLE ( 'NONE', #8, 18.00000000000000000 ) ;
#146 = EDGE_LOOP ( 'NONE', ( #69, #164, #20, #141 ) ) ;
#147 = LINE ( 'NONE', #104, #204 ) ;
#148 = CYLINDRICAL_SURFACE ( 'NONE', #7, 18.00000000000000000 ) ;
#149 = DIRECTION ( 'NONE',  ( -1.000000000000000000, -0.0000000000000000000, -0.0000000000000000000 ) ) ;
#150 = ORIENTED_EDGE ( 'NONE', *, *, #173, .T. ) ;
#151 = DIRECTION ( 'NONE',  ( -1.000000000000000000, -0.0000000000000000000, -0.0000000000000000000 ) ) ;
#152 = AXIS2_PLACEMENT_3D ( 'NONE', #248, #291, #75 ) ;
#153 = AXIS2_PLACEMENT_3D ( 'NONE', #309, #23, #261 ) ;
#154 = EDGE_CURVE ( 'NONE', #215, #45, #145, .T. ) ;
#155 = CARTESIAN_POINT ( 'NONE',  ( 25.98290598290598652, 0.0000000000000000000, -8.500000000000014211 ) ) ;
#156 = PRODUCT_DEFINITION_SHAPE ( 'NONE', 'NONE',  #101 ) ;
#157 = PLANE ( 'NONE',  #302 ) ;
#158 = CARTESIAN_POINT ( 'NONE',  ( 25.98290598290597941, 0.0000000000000000000, 0.0000000000000000000 ) ) ;
#159 = CONICAL_SURFACE ( 'NONE', #184, 8.000000000000000000, 0.7853981633974482790 ) ;
#160 = FACE_OUTER_BOUND ( 'NONE', #137, .T. ) ;
#161 =( NAMED_UNIT ( * ) SI_UNIT ( $, .STERADIAN. ) SOLID_ANGLE_UNIT ( ) );
#162 = ORIENTED_EDGE ( 'NONE', *, *, #154, .F. ) ;
#163 = EDGE_CURVE ( 'NONE', #72, #94, #86, .T. ) ;
#164 = ORIENTED_EDGE ( 'NONE', *, *, #308, .T. ) ;
#165 = VECTOR ( 'NONE', #120, 1000.000000000000000 ) ;
#166 = LINE ( 'NONE', #115, #25 ) ;
#167 = VERTEX_POINT ( 'NONE', #87 ) ;
#168 = DIRECTION ( 'NONE',  ( 1.000000000000000000, 0.0000000000000000000, 0.0000000000000000000 ) ) ;
#169 = ORIENTED_EDGE ( 'NONE', *, *, #221, .F. ) ;
#170 = MECHANICAL_DESIGN_GEOMETRIC_PRESENTATION_REPRESENTATION (  '', ( #130 ), #238 ) ;
#171 = CARTESIAN_POINT ( 'NONE',  ( -6.017094017094014369, 0.0000000000000000000, 8.500000000000007105 ) ) ;
#172 = CARTESIAN_POINT ( 'NONE',  ( 25.98290598290597941, 0.0000000000000000000, 18.00000000000000000 ) ) ;
#173 = EDGE_CURVE ( 'NONE', #242, #73, #175, .T. ) ;
#174 = FACE_OUTER_BOUND ( 'NONE', #191, .T. ) ;
#175 = CIRCLE ( 'NONE', #80, 18.00000000000000000 ) ;
#176 = CARTESIAN_POINT ( 'NONE',  ( 25.48290598290597941, 0.0000000000000000000, 8.000000000000000000 ) ) ;
#177 = CARTESIAN_POINT ( 'NONE',  ( 25.98290598290597941, 0.0000000000000000000, 0.0000000000000000000 ) ) ;
#178 = DIRECTION ( 'NONE',  ( 1.000000000000000000, -0.0000000000000000000, -0.0000000000000000000 ) ) ;
#179 = FACE_OUTER_BOUND ( 'NONE', #312, .T. ) ;
#180 = AXIS2_PLACEMENT_3D ( 'NONE', #277, #113, #63 ) ;
#181 = DIRECTION ( 'NONE',  ( 0.0000000000000000000, 0.0000000000000000000, -1.000000000000000000 ) ) ;
#182 = DIRECTION ( 'NONE',  ( -1.000000000000000000, 0.0000000000000000000, 0.0000000000000000000 ) ) ;
#183 = LINE ( 'NONE', #257, #185 ) ;
#184 = AXIS2_PLACEMENT_3D ( 'NONE', #78, #79, #124 ) ;
#185 = VECTOR ( 'NONE', #280, 1000.000000000000000 ) ;
#186 = ORIENTED_EDGE ( 'NONE', *, *, #11, .T. ) ;
#187 = ADVANCED_FACE ( 'NONE', ( #15 ), #14, .F. ) ;
#188 = APPLICATION_PROTOCOL_DEFINITION ( 'draft international standard', 'automotive_design', 1998, #295 ) ;
#189 = ORIENTED_EDGE ( 'NONE', *, *, #34, .T. ) ;
#190 = ORIENTED_EDGE ( 'NONE', *, *, #276, .T. ) ;
#191 = EDGE_LOOP ( 'NONE', ( #49, #209, #66, #262 ) ) ;
#192 = FACE_BOUND ( 'NONE', #244, .T. ) ;
#193 = VECTOR ( 'NONE', #19, 1000.000000000000000 ) ;
#194 = CIRCLE ( 'NONE', #228, 18.00000000000000000 ) ;
#195 = PRESENTATION_LAYER_ASSIGNMENT (  '', '', ( #130 ) ) ;
#196 = EDGE_CURVE ( 'NONE', #45, #242, #183, .T. ) ;
#197 = LINE ( 'NONE', #222, #40 ) ;
#198 = CARTESIAN_POINT ( 'NONE',  ( -46.22222222222222143, 2.204364238465235428E-15, -18.00000000000000000 ) ) ;
#199 = CARTESIAN_POINT ( 'NONE',  ( -6.017094017094014369, 8.000000000000000000, 0.0000000000000000000 ) ) ;
#200 = EDGE_CURVE ( 'NONE', #94, #72, #224, .T. ) ;
#201 = CARTESIAN_POINT ( 'NONE',  ( 25.48290598290597941, 0.0000000000000000000, 0.0000000000000000000 ) ) ;
#202 = CARTESIAN_POINT ( 'NONE',  ( -6.017094017094014369, 1.040949779275250929E-15, -8.500000000000007105 ) ) ;
#203 = DIRECTION ( 'NONE',  ( 0.0000000000000000000, 0.0000000000000000000, 1.000000000000000000 ) ) ;
#204 = VECTOR ( 'NONE', #225, 1000.000000000000114 ) ;
#205 = AXIS2_PLACEMENT_3D ( 'NONE', #114, #259, #181 ) ;
#206 = CARTESIAN_POINT ( 'NONE',  ( 25.98290598290598652, 0.0000000000000000000, 0.0000000000000000000 ) ) ;
#207 = DIRECTION ( 'NONE',  ( 0.0000000000000000000, 0.0000000000000000000, -1.000000000000000000 ) ) ;
#208 = FILL_AREA_STYLE ('',( #136 ) ) ;
#209 = ORIENTED_EDGE ( 'NONE', *, *, #76, .T. ) ;
#210 = CIRCLE ( 'NONE', #251, 8.000000000000000000 ) ;
#211 = DIRECTION ( 'NONE',  ( -1.000000000000000000, -0.0000000000000000000, -0.0000000000000000000 ) ) ;
#212 = ADVANCED_FACE ( 'NONE', ( #234 ), #126, .F. ) ;
#213 = ORIENTED_EDGE ( 'NONE', *, *, #27, .F. ) ;
#214 = CARTESIAN_POINT ( 'NONE',  ( 0.0000000000000000000, 0.0000000000000000000, 0.0000000000000000000 ) ) ;
#215 = VERTEX_POINT ( 'NONE', #112 ) ;
#216 = CYLINDRICAL_SURFACE ( 'NONE', #153, 18.00000000000000000 ) ;
#217 = ORIENTED_EDGE ( 'NONE', *, *, #111, .F. ) ;
#218 = DIRECTION ( 'NONE',  ( 0.0000000000000000000, 0.0000000000000000000, -1.000000000000000000 ) ) ;
#219 = ORIENTED_EDGE ( 'NONE', *, *, #55, .F. ) ;
#220 = FILL_AREA_STYLE ('',( #127 ) ) ;
#221 = EDGE_CURVE ( 'NONE', #52, #266, #260, .T. ) ;
#222 = CARTESIAN_POINT ( 'NONE',  ( -5.517094017094007263, 0.0000000000000000000, 8.000000000000000000 ) ) ;
#223 = STYLED_ITEM ( 'NONE', ( #56 ), #83 ) ;
#224 = CIRCLE ( 'NONE', #53, 8.000000000000000000 ) ;
#225 = DIRECTION ( 'NONE',  ( -0.7071067811865474617, 8.659560562354932858E-17, -0.7071067811865474617 ) ) ;
#226 = DIRECTION ( 'NONE',  ( -1.000000000000000000, -0.0000000000000000000, -0.0000000000000000000 ) ) ;
#227 =( NAMED_UNIT ( * ) PLANE_ANGLE_UNIT ( ) SI_UNIT ( $, .RADIAN. ) );
#228 = AXIS2_PLACEMENT_3D ( 'NONE', #177, #149, #29 ) ;
#229 = CIRCLE ( 'NONE', #263, 8.500000000000014211 ) ;
#230 = CARTESIAN_POINT ( 'NONE',  ( -46.22222222222222143, 0.0000000000000000000, 0.0000000000000000000 ) ) ;
#231 = CARTESIAN_POINT ( 'NONE',  ( -6.017094017094014369, 0.0000000000000000000, 0.0000000000000000000 ) ) ;
#232 = CARTESIAN_POINT ( 'NONE',  ( 25.48290598290597941, 0.0000000000000000000, 0.0000000000000000000 ) ) ;
#233 = EDGE_CURVE ( 'NONE', #71, #267, #210, .T. ) ;
#234 = FACE_OUTER_BOUND ( 'NONE', #121, .T. ) ;
#235 = DIRECTION ( 'NONE',  ( 0.0000000000000000000, 0.0000000000000000000, 1.000000000000000000 ) ) ;
#236 = APPLICATION_PROTOCOL_DEFINITION ( 'draft international standard', 'automotive_design', 1998, #35 ) ;
#237 = ORIENTED_EDGE ( 'NONE', *, *, #34, .F. ) ;
#238 =( GEOMETRIC_REPRESENTATION_CONTEXT ( 3 ) GLOBAL_UNCERTAINTY_ASSIGNED_CONTEXT ( ( #249 ) ) GLOBAL_UNIT_ASSIGNED_CONTEXT ( ( #96, #21, #161 ) ) REPRESENTATION_CONTEXT ( 'NONE', 'WORKASPACE' ) );
#239 = PRODUCT_CONTEXT ( 'NONE', #295, 'mechanical' ) ;
#240 = ORIENTED_EDGE ( 'NONE', *, *, #163, .F. ) ;
#241 = SURFACE_STYLE_FILL_AREA ( #208 ) ;
#242 = VERTEX_POINT ( 'NONE', #278 ) ;
#243 = CARTESIAN_POINT ( 'NONE',  ( -5.517094017094007263, 0.0000000000000000000, 0.0000000000000000000 ) ) ;
#244 = EDGE_LOOP ( 'NONE', ( #285, #306 ) ) ;
#245 = VECTOR ( 'NONE', #226, 1000.000000000000000 ) ;
#246 = EDGE_LOOP ( 'NONE', ( #310, #189, #169, #116 ) ) ;
#247 = ADVANCED_FACE ( 'NONE', ( #62, #39 ), #157, .F. ) ;
#248 = CARTESIAN_POINT ( 'NONE',  ( -6.017094017094014369, 0.0000000000000000000, 0.0000000000000000000 ) ) ;
#249 = UNCERTAINTY_MEASURE_WITH_UNIT (LENGTH_MEASURE( 1.000000000000000082E-05 ), #96, 'distance_accuracy_value', 'NONE');
#250 = EDGE_LOOP ( 'NONE', ( #288, #190, #22, #217 ) ) ;
#251 = AXIS2_PLACEMENT_3D ( 'NONE', #61, #299, #82 ) ;
#252 = CARTESIAN_POINT ( 'NONE',  ( 25.48290598290597941, 9.797174393178825657E-16, -8.000000000000000000 ) ) ;
#253 = FACE_OUTER_BOUND ( 'NONE', #58, .T. ) ;
#254 = CARTESIAN_POINT ( 'NONE',  ( 25.98290598290598652, 18.00000000000000000, 0.0000000000000000000 ) ) ;
#255 = DIRECTION ( 'NONE',  ( 0.0000000000000000000, 0.0000000000000000000, 1.000000000000000000 ) ) ;
#256 = ADVANCED_FACE ( 'NONE', ( #110 ), #48, .F. ) ;
#257 = CARTESIAN_POINT ( 'NONE',  ( -46.22222222222222143, 0.0000000000000000000, 18.00000000000000000 ) ) ;
#258 = DIRECTION ( 'NONE',  ( 0.0000000000000000000, 0.0000000000000000000, 1.000000000000000000 ) ) ;
#259 = DIRECTION ( 'NONE',  ( 1.000000000000000000, 0.0000000000000000000, 0.0000000000000000000 ) ) ;
#260 = CIRCLE ( 'NONE', #205, 8.500000000000007105 ) ;
#261 = DIRECTION ( 'NONE',  ( 0.0000000000000000000, 0.0000000000000000000, 1.000000000000000000 ) ) ;
#262 = ORIENTED_EDGE ( 'NONE', *, *, #196, .F. ) ;
#263 = AXIS2_PLACEMENT_3D ( 'NONE', #206, #65, #133 ) ;
#264 = CARTESIAN_POINT ( 'NONE',  ( -46.22222222222222143, 9.797174393178825657E-16, -8.000000000000000000 ) ) ;
#265 = ORIENTED_EDGE ( 'NONE', *, *, #44, .F. ) ;
#266 = VERTEX_POINT ( 'NONE', #202 ) ;
#267 = VERTEX_POINT ( 'NONE', #305 ) ;
#268 = VECTOR ( 'NONE', #13, 1000.000000000000000 ) ;
#269 = SURFACE_STYLE_USAGE ( .BOTH. , #54 ) ;
#270 = ADVANCED_FACE ( 'NONE', ( #179 ), #281, .F. ) ;
#271 = DIRECTION ( 'NONE',  ( -1.000000000000000000, -0.0000000000000000000, -0.0000000000000000000 ) ) ;
#272 = PRESENTATION_LAYER_ASSIGNMENT (  '', '', ( #223 ) ) ;
#273 = FACE_OUTER_BOUND ( 'NONE', #146, .T. ) ;
#274 = DIRECTION ( 'NONE',  ( 0.0000000000000000000, 0.0000000000000000000, -1.000000000000000000 ) ) ;
#275 = DIRECTION ( 'NONE',  ( -1.000000000000000000, -0.0000000000000000000, -0.0000000000000000000 ) ) ;
#276 = EDGE_CURVE ( 'NONE', #94, #167, #31, .T. ) ;
#277 = CARTESIAN_POINT ( 'NONE',  ( 25.98290598290597941, 0.0000000000000000000, 0.0000000000000000000 ) ) ;
#278 = CARTESIAN_POINT ( 'NONE',  ( -6.017094017094014369, 0.0000000000000000000, 18.00000000000000000 ) ) ;
#279 = CARTESIAN_POINT ( 'NONE',  ( 25.98290598290597941, 0.0000000000000000000, -8.500000000000007105 ) ) ;
#280 = DIRECTION ( 'NONE',  ( -1.000000000000000000, -0.0000000000000000000, -0.0000000000000000000 ) ) ;
#281 = CONICAL_SURFACE ( 'NONE', #180, 8.500000000000007105, 0.7853981633974552734 ) ;
#282 = ORIENTED_EDGE ( 'NONE', *, *, #111, .T. ) ;
#283 = EDGE_LOOP ( 'NONE', ( #123, #18 ) ) ;
#284 = EDGE_CURVE ( 'NONE', #94, #267, #166, .T. ) ;
#285 = ORIENTED_EDGE ( 'NONE', *, *, #221, .T. ) ;
#286 = AXIS2_PLACEMENT_3D ( 'NONE', #4, #81, #298 ) ;
#287 = AXIS2_PLACEMENT_3D ( 'NONE', #214, #68, #168 ) ;
#288 = ORIENTED_EDGE ( 'NONE', *, *, #200, .F. ) ;
#289 = LINE ( 'NONE', #264, #193 ) ;
#290 = ORIENTED_EDGE ( 'NONE', *, *, #27, .T. ) ;
#291 = DIRECTION ( 'NONE',  ( 1.000000000000000000, 0.0000000000000000000, 0.0000000000000000000 ) ) ;
#292 = AXIS2_PLACEMENT_3D ( 'NONE', #199, #30, #274 ) ;
#293 =( LENGTH_UNIT ( ) NAMED_UNIT ( * ) SI_UNIT ( .MILLI., .METRE. ) );
#294 = UNCERTAINTY_MEASURE_WITH_UNIT (LENGTH_MEASURE( 1.000000000000000082E-05 ), #293, 'distance_accuracy_value', 'NONE');
#295 = APPLICATION_CONTEXT ( 'automotive_design' ) ;
#296 = PRODUCT_DEFINITION_CONTEXT ( 'detailed design', #35, 'design' ) ;
#297 = CARTESIAN_POINT ( 'NONE',  ( -46.22222222222222143, 0.0000000000000000000, 0.0000000000000000000 ) ) ;
#298 = DIRECTION ( 'NONE',  ( 0.0000000000000000000, 0.0000000000000000000, 1.000000000000000000 ) ) ;
#299 = DIRECTION ( 'NONE',  ( -1.000000000000000000, 0.0000000000000000000, 0.0000000000000000000 ) ) ;
#300 = ADVANCED_FACE ( 'NONE', ( #160 ), #216, .T. ) ;
#301 = CARTESIAN_POINT ( 'NONE',  ( -46.22222222222222143, 0.0000000000000000000, 0.0000000000000000000 ) ) ;
#302 = AXIS2_PLACEMENT_3D ( 'NONE', #254, #135, #134 ) ;
#303 = LINE ( 'NONE', #279, #268 ) ;
#304 = DIRECTION ( 'NONE',  ( -1.000000000000000000, -0.0000000000000000000, -0.0000000000000000000 ) ) ;
#305 = CARTESIAN_POINT ( 'NONE',  ( -5.517094017094007263, 0.0000000000000000000, 8.000000000000000000 ) ) ;
#306 = ORIENTED_EDGE ( 'NONE', *, *, #44, .T. ) ;
#307 = ORIENTED_EDGE ( 'NONE', *, *, #154, .T. ) ;
#308 = EDGE_CURVE ( 'NONE', #72, #71, #289, .T. ) ;
#309 = CARTESIAN_POINT ( 'NONE',  ( -46.22222222222222143, 0.0000000000000000000, 0.0000000000000000000 ) ) ;
#310 = ORIENTED_EDGE ( 'NONE', *, *, #233, .F. ) ;
#311 =( NAMED_UNIT ( * ) SI_UNIT ( $, .STERADIAN. ) SOLID_ANGLE_UNIT ( ) );
#312 = EDGE_LOOP ( 'NONE', ( #77, #240, #282, #24 ) ) ;
#313 = EDGE_CURVE ( 'NONE', #267, #71, #28, .T. ) ;
#314 = SURFACE_STYLE_FILL_AREA ( #220 ) ;
ENDSEC;
END-ISO-10303-21;
